PrimaNota.ru - самый крупный в мире бесплатный архив песенных текстов, аккордов, табулатур и нот


Thousand Foot Krutch - I Get Wicked - текст песни, таба, видео

Регистрация Запомнить меня
Войти через:  Facebook Google Twitter Vk Yandex Mail.ru

Thousand Foot Krutch - I Get Wicked - текст песни, таба, видео

Печатать
Просмотров: 421
----------------------------------------------------------------------------
                     I GET WICKED - Thousand Foot Krutch
----------------------------------------------------------------------------
Tabbed by: Rawk4Life

Tuning: Drop B

Tab key:
* = Palm Mute
\ = slide
b = bend
r = release
x = mute
h = hammer-on

INTRO (Play two times)
C#|------------------------------------------------------|
G#|------------------------------------------------------|
E |--14-------14-------14-------14-------14----14b15r14--|
B |-----12-12----12-12----12-12----12-12----12-----------|
F#|------------------------------------------------------|
B |------------------------------------------------------|

C#|------------------------------------------------------|
G#|------------------------------------------------------|
E |--14-------14-------14----17-------15-------15--------|
B |-----12-12----12-12----12----12-12----12-12----12-----|
F#|------------------------------------------------------|
B |------------------------------------------------------|

C#|------------------------------------------------------|
G#|------------------------------------------------------|
E |--14-------14-------14-------14-------14----14b15r14--|
B |-----12-12----12-12----12-12----12-12----12-----------|
F#|------------------------------------------------------|
B |------------------------------------------------------|
                              First ending           Second ending
C#|---------------------------|----------------------|-----|
G#|---------------------------|----------------------|-----|
E |--14-------14-------14-----|----------------------|-----|
B |-----12-12----12-12----12--|10-12-10-12--9-12-9-12|--1--|
F#|---------------------------|----------------------|--1--|
B |---------------------------|----------------------|--1--|

INTRO 2 (Play twice)
C#|--------------------------------------------------------|
G#|--------------------------------------------------------|
E |--------------------------------------------------------|
B |--7-0-00-3-0--7-0-00-10-8--7-0-00-3-0--8h10-5h7-3h5-----| 2x
F#|--7-0-00-3-0--7-0-00-10-8--7-0-00-3-0--8h10-5h7-3h5-----|
B |--7-0-00-3-0--7-0-00-10-8--7-0-00-3-0--8h10-5h7-3h5-----|

VERSE
C#|--------------------------------------------------------|
G#|--------------------------------------------------------|
E |--------------------------------------------------------|
B |--------------------------------------------------------|
F#|--------------------------------------------------------|
B |--7-0-00-3-0--7-0-00-3-1-7-0-00-3-0--5-5-1-1-1----------|
     * * ** * *  * * ** * * * * ** * *  * * * * *
C#|------------------------------|
G#|------------------------------|
E |------------------------------|
B |---------------------------1--|
F#|---------------------------1--|
B |--7-0-00-3-0--7-0-00-3-1---1--|
     * * ** * *  * * ** * *
C#|--------------------------------------------------------|
G#|--------------------------------------------------------|
E |--------------------------------------------------------|
B |--7-0-00-3-0--7-0-00-10-8--7-0-00-3-0--5-5-1-1-1--------|
F#|--7-0-00-3-0--7-0-00-10-8--7-0-00-3-0--5-5-1-1-1--------|
B |--7-0-00-3-0--7-0-00-10-8--7-0-00-3-0--5-5-1-1-1--------|
     * * ** * *  * * ** *  *  * * ** * *  * * * * *
C#|-------------------------------|
G#|-------------------------------|
E |-------------------------------|
B |--7-0-00-3-0--7-0-00-10-8---1--|
F#|--7-0-00-3-0--7-0-00-10-8---1--|
B |--7-0-00-3-0--7-0-00-10-8---1--|
     * * ** * *  * * ** *  *


PRE-CHORUS
C#|--------------------------------------------------------|
G#|--------------------------------------------------------|
E |--------------------------------------------------------|
B |--7-0-00-3-0--7-0-00-10-8--7-0-00-3-0--8h10-5h7-3h5-----| 2x
F#|--7-0-00-3-0--7-0-00-10-8--7-0-00-3-0--8h10-5h7-3h5-----|
B |--7-0-00-3-0--7-0-00-10-8--7-0-00-3-0--8h10-5h7-3h5-----|

CHORUS
C#|-----------------------------------------------------------|
G#|-----------------------------------------------------------|
E |-----------------------------------------------------------|
B |--8-8-xx-x-10-10-xx-x-55-55-55-00-0-0-8-8-8-8-10\----------| 
F#|--8-8-xx-x-10-10-xx-x-55-55-55-00-0-0-8-8-8-8-10\----------|
B |--8-8-xx-x-10-10-xx-x-55-55-55-00-0-0-8-8-8-8-10\----------|
                                         * * * *

C#|------------------------|
G#|------------------------|
E |------------------------|
B |------------------------| 2x
F#|------------------------|
B |--6-5-0-6-5-0-5-0-------|

C#|-----------------------------------------------------------|
G#|-----------------------------------------------------------|
E |-----------------------------------------------------------|
B |--8-8-xx-x-10-10-xx-x-55-55-55-00-0-0-8-8-8-8-10\----------| 
F#|--8-8-xx-x-10-10-xx-x-55-55-55-00-0-0-8-8-8-8-10\----------|
B |--8-8-xx-x-10-10-xx-x-55-55-55-00-0-0-8-8-8-8-10\----------|
                                         * * * *

C#|------------------------|
G#|------------------------|
E |------------------------|
B |--6-5-0-6-5-0-5-0-------| 2x
F#|--6-5-0-6-5-0-5-0-------|
B |--6-5-0-6-5-0-5-0-------|

Repeat Verse

Repeat Pre-Chorus

Repeat the chorus then go to this:

C#|------------------------|
G#|------------------------|
E |------------------------|
B |------------------------| 4x
F#|------------------------|
B |--6-5-0-6-5-0-5-0-------|


C#|------------------------|
G#|------------------------|
E |------------------------|
B |--6-5-0-6-5-0-5-0-------| 4x
F#|--6-5-0-6-5-0-5-0-------|
B |--6-5-0-6-5-0-5-0-------|



BRIDGE

C#|--------------------------------------------------------|
G#|--------------------------------------------------------|
E |--------------------------------------------------------|
B |--------------------------------------------------------|
F#|--------------------------------------------------------|
B |--7-0-00-3-0--7-0-00-10-8--7-0-00-3-0--5-5-1-1-1--------|
     * * ** * *  * * ** *  *  * * ** * *  * * * * *

C#|--------------------------------------------------------|
G#|--------------------------------------------------------|
E |--------------------------------------------------------|
B |--7-0-00-3-0--7-0-00-10-8--7-0-00-3-0---1-1-1-1---------|
F#|--7-0-00-3-0--7-0-00-10-8--7-0-00-3-0---1-1-1-1---------|
B |--7-0-00-3-0--7-0-00-10-8--7-0-00-3-0---1-1-1-1---------|
     * * ** * *  * * ** *  *  * * ** * * 

OUTRO

C#|--------------------------------------------------------|
G#|--------------------------------------------------------|
E |--------------------------------------------------------|
B |--7-0-00-3-0--7-0-00-10-8--7-0-00-3-0--8h10-5h7-3h5-----| 6x
F#|--7-0-00-3-0--7-0-00-10-8--7-0-00-3-0--8h10-5h7-3h5-----|
B |--7-0-00-3-0--7-0-00-10-8--7-0-00-3-0--8h10-5h7-3h5-----|

End on: 

C#|------------------|
G#|------------------|
E |------------------|
B |--1-1-1-1-1-1-----|
F#|--1-1-1-1-1-1-----|
B |--1-1-1-1-1-1-----|

Finished!
Добавлено: 21.08.2013
Другие материалы по этой песне:
  • Аккорды и текст

Страница создана 21.08.2013
http://primanota.ru/thousand-foot-krutch/i-get-wicked-chords.htm
Привет, Гость.
Предлагаем пройти революционный курс по гитаре.
Подарок от PrimaNota.Ru, забирай!