PrimaNota.ru - самый крупный в мире бесплатный архив песенных текстов, аккордов, табулатур и нот


Theory Of A Deadman - Savages - таба, видео

Регистрация Запомнить меня
Войти через:  Facebook Google Twitter Vk Yandex Mail.ru

Theory Of A Deadman - Savages - таба, видео

Печатать
Просмотров: 217
Авторы: Dave Brenner, Tyler Connolly, Christine Danielle Connolly, Dean Back, Joey Dandeneau

Savages. Track 3 from the brand new Theory of a Deadman album, SAVAGES.

Drop C# Tuning Low to High:(C#,G#,C#,F#,Bb,Eb)
Guitar one: LEAD. Guitar two: RHYTHM. Guitar 3: EXTRA LEAD
Intro: Random noises
0:08
Guitar 1
1---------------------------------------------------------
2---------------------------------------------------------
3---------------------------------------------------------
4---5h7-7-7-7-7-7p6-6-6-6-6-5h7-7-7-7-7-7p6-6-6-6-6-------   X2
5---5-----5-----5-----5-----5-----5-----5-----5-----------
6---------------------------------------------------------
Guitar 2
1---0:18-----------0:23--------------0:25-----------------
2---------------------------------------------------------
3---------------------------------------------------------
4---000------------000------------00000000----------------
5---000------------000------------00000000----------------
6---000------------000------------00000000----------------
    ..             ..             ....     (gradually release palm mute)

1st Verse:
0:28
Both guitars
1---------------------------------------------------------
2---------------------------------------------------------
3---------------------------------------------------------
4---------------------------------------------------------   X2
5-------------------------3/5-555555-5\3-333333-----------
6--1003001003003333--X3---3/5-555555-5\3-333333-----------
   ................           ......     ......

Pre-Chorus:
0:48
Guitar 1
1---------------------------------------------------------
2---------------------------------------------------------
3---------------------------------------------------------
4---5h7-7-7-7-7-7p6-6-6-6-6-5h7-7-7-7-7-7p6-6-6-6-6-6x----   
5---5-----5-----5-----5-----5-----5-----5-----5-----5x----
6---------------------------------------------------------
Guitar 2
1---------------------------------------------------------
2---------------------------------------------------------
3---------------------------------------------------------
4---000--003--005--000--003--5x---------------------------
5---000--003--005--000--003--5x---------------------------
6---000--003--005--000--003--5x---------------------------
    ..   ..   ..   ..   ..  

CHORUS:
0:58
Both Guitars
1--------------------------------------------------------------------
2--------------------------------------------------------------------
3----------------------------------------------------3333333333333333
4-0000000000000000-3333333333333333-5555555555555555-3333333333333333
5-0000000000000000-3333333333333333-5555555555555555-1111111111111111
6-0000000000000000-3333333333333333-5555555555555555-----------------

1--------------------------------------------------------------------
2--------------------------------------------------------------------
3----------------------------------------------------3333333355555555
4-0000000000000000-3333333333333333-5555555555555555-3333333355555555
5-0000000000000000-3333333333333333-5555555555555555-1111111133333333
6-0000000000000000-3333333333333333-5555555555555555-----------------

Post-Chorus
1:17
Both Guitars
1----------------------------------------------------------
2----------------------------------------------------------
3----------------------------------------------------------
4----------------------------------------------------------
5-----------------------------33---------------------------
6--1003001003003333100300100--33---------------------------
   .........................  ..

2nd Verse
1:22
Both Guitars
1---------------------------------------------------------
2---------------------------------------------------------
3---------------------------------------------------------
4---------------------------------------------------------
5-------------------------3/5-555555-5\3-333333-----------
6--1003001003003333--X3---3/5-555555-5\3-333333-----------
   ................           ......     ......

Pre-Chorus: (Slight Variation)
Guitar 1
1---------------------------------------------------------
2---------------------------------------------------------
3---------------------------------------------------------
4---5h7-7-7-7-7-7p6-6-6-6-6-5h7-7-7-7-7-7p6-6-6-6-6-6x----   
5---5-----5-----5-----5-----5-----5-----5-----5-----5x----
6---------------------------------------------------------
Guitar 2
1---------------------------------------------------------
2---------------------------------------------------------
3---------------------------------------------------------
4---000-000000--003-00-005-00--000-000000--003-005-533----
5---000-000000--003-00-005-00--000-000000--003-005-533----
6---000-000000--003-00-005-00--000-000000--003-005-533----
    ..  ......  ..  .. ..  ..  ..  ......  ..  ..  .
2nd Chorus:
1:42
Both Guitars
1--------------------------------------------------------------------
2--------------------------------------------------------------------
3----------------------------------------------------3333333333333333
4-0000000000000000-3333333333333333-5555555555555555-3333333333333333  X2
5-0000000000000000-3333333333333333-5555555555555555-1111111111111111
6-0000000000000000-3333333333333333-5555555555555555-----------------

1--------------------------------------------------------------------
2--------------------------------------------------------------------
3----------------------------------------------------3333333355555555
4-0000000000000000-3333333333333333-5555555555555555-3333333355555555
5-0000000000000000-3333333333333333-5555555555555555-1111111133333333
6-0000000000000000-3333333333333333-5555555555555555-----------------

Pre-Solo:
2:04
Guitar 1
1---------------------------------------------------------
2---------------------------------------------------------
3---------------------------------------------------------
4---5h7-7-7-7-7-7p6-6-6-6-6-5h7-7-7-7-7-7p6-6-6-6-6-------   X2.5
5---5-----5-----5-----5-----5-----5-----5-----5-----------
6---------------------------------------------------------
Guitar 2
1---------------------------------------------------------
2---------------------------------------------------------
3---------------------------------------------------------
4---0~~~~~~~~~[000]0----000----000---------00000000-------
5---0~~~~~~~~~[000]0----000----000---------00000000-------
6---0~~~~~~~~~[000]0----000----000---------00000000-------
               ...      ..     ..          ....   (gradually release palm mute)
            (Triplet)
Solo:
2:29
Guitar 1:
(Don't Have The Solo, Sorry)
Guitar 2
1---------------------------------------------------------
2---------------------------------------------------------
3---------------------------------------------------------
4---------------------------------------------------------   
5-------------------------3/5-555555-5\3-333333-----------
6--1003001003003333--X3---3/5-555555-5\3-333333-----------
   ................           ......     ......

1---------------------------------------------------------
2---------------------------------------------------------
3---------------------------------------------------------
4-------------------------5~~~~~10~~~~~12~~~~~~~~~~~~~~~~~  
5-------------------------5~~~~~10~~~~~12~~~~~~~~~~~~~~~~~
6--1003001003003333--X3---5~~~~~10~~~~~12~~~~~~~~~~~~~~~~~

Final Chorus:
2:48
Both Guitars
1--------------------------------------------------------------------
2--------------------------------------------------------------------
3----------------------------------------------------3333333333333333
4-0000000000000000-3333333333333333-5555555555555555-3333333333333333
5-0000000000000000-3333333333333333-5555555555555555-1111111111111111
6-0000000000000000-3333333333333333-5555555555555555-----------------

1------------------------------------------------------------------------------------
2------------------------------------------------------------------------------------
3--------------------------------------------------------------------3333333333333333
4-0000000000000000-10101010101010101010101010101010-5555555555555555-3333333333333333
5-0000000000000000-10101010101010101010101010101010-5555555555555555-1111111111111111
6-0000000000000000-10101010101010101010101010101010-5555555555555555-----------------

Guitar 1
1------------------------------------------------------------------------------------
2------------------------------------------------------------------------------------
3-7777777777777777-1010101010101010-12121212121212121212121212121212-3333333333333333
4------------------------------------------------------------------------------------
5-5555555555555555-8888888888888888-10101010101010101010101010101010-1111111111111111
6------------------------------------------------------------------------------------
Guitar 2
1------------------------------------------------------------------------------------
2------------------------------------------------------------------------------------
3--------------------------------------------------------------------3333333333333333
4-0000000000000000-10101010101010101010101010101010-5555555555555555-3333333333333333
5-0000000000000000-10101010101010101010101010101010-5555555555555555-1111111111111111
6-0000000000000000-10101010101010101010101010101010-5555555555555555-----------------
Both Guitars
1------------------------------------------------------------------------------------
2------------------------------------------------------------------------------------
3-33333333-55555555------------------------------------------------------------------
4-33333333-55555555------------------------------------------------------------------
5-11111111-33333333------------------------------------------------------------------
6------------------------------------------------------------------------------------

Outro;
3:21
Guitar 1
1-------------------------------------------------------------------------------------
2-------------------------------------------------------------------------------------
3-16b19-16b19-16b19-16b19-16b19~-X3---16b19-16b19-16b19-16b19x------------------------
4-------------------------------------------------------------------------------------
5-------------------------------------------------------------------------------------
6-------------------------------------------------------------------------------------
Guitar 3:
1-22b-22b-22b-22b-22b~-22b-22b-22b-22b-22b~-22b-22b-22b-22b-22b~-22b-22b-22b-22bx-----
2-------------------------------------------------------------------------------------
3-------------------------------------------------------------------------------------
4-------------------------------------------------------------------------------------
5-------------------------------------------------------------------------------------
6-------------------------------------------------------------------------------------
Guitar 2;
1-------------------------------------------------------------------------------------
2-------------------------------------------------------------------------------------
3-------------------------------------------------------------------------------------
4----------------------------------------------------------------00x------------------
5-----------------------------------------------------000-333-03-00x------------------
6-0003330003330000-0003330003330000-0003330003330000--000-333-03-00x------------------

END!!!

Tab Legend:
.=Palm Mute
b=bend (22 is a half note bend)
~=let ring
/=slide down neck
\=slide up neck
x=mute strings
[]=triplets inside
h=hammer on
p=pull-off
Добавлено: 12.10.2014
Другие материалы по этой песне:
  • Аккорды и текст

Страница создана 12.10.2014
http://primanota.ru/theory-of-a-deadman/savages-chords.htm
Привет, Гость.
Предлагаем пройти революционный курс по гитаре.
Подарок от PrimaNota.Ru, забирай!