PrimaNota.ru - самый крупный в мире бесплатный архив песенных текстов, аккордов, табулатур и нот


Theory Of A Deadman - Misery Of Mankind - таба, видео

Регистрация Запомнить меня
Войти через:  Facebook Google Twitter Vk Yandex Mail.ru

Theory Of A Deadman - Misery Of Mankind - таба, видео

Печатать
Просмотров: 140
-------------------------------------------------------------------------------
                        Theory of a Deadman - Misery of Mankind
-------------------------------------------------------------------------------
Tabbed by: Diesel
E-mail: daughtryfan497@gmail.com

Tuning: Drop B ( B - F# - B - E - G# - C#)

                        Intro

e|-----------------------------------------------------------------------------|
B|-----------------------------------------------------------------------------|
G|---------------5-7ah---------------------------------------------------------|
D|---6-5-3--0--0--------00--00---3-1----------6-5-3----------------------------|
A|---6-5-3--0-----------00--00-------3--x3----6-5-3----------------------------|
E|---6-5-3--0-----------00--00----------------6-5-3----------------------------|
                   *

                        Verse
e|-----------------------------------------------------------------------------|
B|-----------------------------------------------------------------------------|
G|-----------------------------------------------------------------------------|
D|-----------------------------------------------------------------------------|
A|---------3-----------3-----------6-6-6-6-------------------------------------|
E|-0000000-3--0000000--3--0000000--6-6-6-6--x2---------------------------------|


e|-----------------------------------------------------------------------------|
B|-----------------------------------------------------------------------------|
G|-----------------------------------------------------------------------------|
D|-----------------------------------------------------------------------------|
A|-----------------------------------------------------------------------------|
E|--333-3--3-3-3-3-333-3-3-3-3--333-3-3-3-3--333--333--111---------------------|
    *** *  * * * * *** * * * *  *** * * * *  ***  ***  ***

                          Repeat 1st Half

                              Pre Chorus
e|-----------------------------------------------------------------------------|
B|-----------------------------------------------------------------------------|
G|-----------------------------------------------------------------------------|
D|-----7-8-7-8-----------------------------------------------------------------|
A|-----7-8-7-8--8-8-8-8--------------------------------------------------------|
E|-----7-8-7-8--8-8-8-8--------------------------------------------------------|
                * * * *

                             Chorus
e|-----------------------------------------------------------------------------|
B|-----------------------------------------------------------------------------|
G|--------------------------------5-7ah----------------------------------------|
D|---0----6--5--3-----6-5-3--0--0----------------------------------------------|
A|---0----x--x--x-x2--6-5-3--0-------------------------------------------------|
E|---0----6--5--3-----6-5-3--0-------------------------------------------------|
                                    *

                      Rhythm under the Solo

e|-----------------------------------------------------------------------------|
B|-----------------------------------------------------------------------------|
G|-----------------------------------------------------------------------------|
D|--------3-1---x16---------------------3----2----0------repeat-1st-half-x4----|
A|-----------3---------------5----------3----2----0----------------------------|
E|--00-0-0-----------33-3------6-5-x4---3----2----0----------------------------|


                           Outro Chorus
e|-----------------------------------------------------------------------------|
B|-----------------------------------------------------------------------------|
G|------------------------------------------------5-7ah------------------------|
D|--3rd-bar-difference-0--3--5--3-----6-5-3--0--0------------------------------|
A|---------------------0--x--x--x-----6-5-3--0---------------------------------|
E|---------------------0--3--5--3-----6-5-3--0---------------------------------|
                                                    *
End with Intro

Intro
Verse
Pre Chorus
Chorus
Intro
Verse
Pre Chorus
Chorus
Rhythm under solo
Pre Chorus
Chorus with 3rd bar difference
Intro
************************************

| /   slide up
| \   slide down
| h   hammer-on
| p   pull-off
| ~   vibrato
| +   harmonic
| x   Mute note
| b   Bend
| pb  Pre-bend
| br  Bend release
| pbr Pre-bend release
| brb Bend release bend

************************************
Добавлено: 18.10.2015
Другие материалы по этой песне:
  • Аккорды и текст

Страница создана 18.10.2015
http://primanota.ru/theory-of-a-deadman/misery-of-mankind-chords.htm
Привет, Гость.
Предлагаем пройти революционный курс по гитаре.
Подарок от PrimaNota.Ru, забирай!