PrimaNota.ru - самый крупный в мире бесплатный архив песенных текстов, аккордов, табулатур и нот


Theory Of A Deadman - Panic Room - таба, видео

Регистрация Запомнить меня
Войти через:  Facebook Google Twitter Vk Yandex Mail.ru

Theory Of A Deadman - Panic Room - таба, видео

Печатать
Просмотров: 135
-------------------------------------------------------------------------------
                            Theory of a Deadman - Panic Room
-------------------------------------------------------------------------------
Tabbed by: Diesel
E-mail: daughtryfan497@gmail.com

Tuning: Drop C ( C - G - C - F - A - D)

                                    Intro

                               Guitar 1

e|----------------------------------------------------------------------------------|
B|----------------------------------------------------------------------------------|
G|------------------7----7-----8-----7-----7---------7-----7------------------------|
D|------------------x----x-----x-----x-----x------4--x-----x------5--55-44-11-0-----|
A|------------------5----5-----6-----5-----5------4--5-----5------5--55-44-11-0-----|
E|---0-3-5-6-5-3-0---0-0---0-0---0-0---0-0---0-0--4----0-0---0-0--5--55-44-11-0-----|

                                  Guitar 2

e|-----------------------------------------------------10----------------------|
B|--10--10--10---8----10--10--10---7---10--10--10--11--13b---------------------|
G|--12b-12b-12b--10b--12b-12b-12b--9b--12b-12b-12b-13b-------------------------|
D|-----------------------------------------------------------------------------|
A|-----------------------------------------------------------------------------|
E|-----------------------------------------------------------------------------|


                                 Verse

e|-----------------------------------------------------------------------------|
B|-----------------------------------------------------------------------------|
G|---------------------------------------------------------------7---6---7+----|
D|----------------------------------------------------------------8---5--------|
A|----5-----5-------5--5-----5-------5-----/6-5-------5--5-----5---8---5------|
E|----0-0-0-0-0-0-0-0--0-0-0-0-0-0-0-0-0-0----0-0-0-0-0--0-0-0-0-------------|
        * *   * * *      * *   * * *   * *      * * *      * *
                                 Pre Chorus

e|-----------------------------------------------------------------------------|
B|-----------------------------------------------------------------------------|
G|-----------------------------------------------------------------------------|
D|-----------------------------------------------------------------------------|
A|-----------------------------------------------------------------------------|
E|----555-5-5-555-5-5-555-5-5-5-5-888-8-8-888-8-8-888-777-777-777--------------|
      *** * * *** * * *** * * * * *** * * *** * * *** *** *** ***

                              Chorus


e|-----------------------------------------------------------------------------|
B|-----------------------------------------------------------------------------|
G|-----------------------------------------------------------------------------|
D|---0--10--8--7--3------5--8--------------------------------------------------|
A|---0--10--8--7--3-x2---5--8--------------------------------------------------|
E|---0--10--8--7--3------5--8--0-3-5-6-5-3-0-----------------------------------|

                                Bridge

e|----------------------------------------------------------------------------------------------
B|---------------------------------------------------------------------------------------------
G|----------------------------------------------------------------------------------------------
D|-----5--8-7------------------------8----------------------------------------------------------
A|-----5--8-7------------------------8----------------------------------------------------------
E|-----5--8-7---555-5-5-555-5-5-555--8--0-0-1-0-0-0-1-0-0-0-1--12-13-10-0-0-1-0-0-1-0-0-1-0-0-1-
                *** * * *** * * ***

                             Solo

e|-----------------------------------------------------------------------------|
B|---10--10--10--10--10--11---13--13--13--13---15------------------------------|
G|---12b-12b-12b-12b-12b-13b--15b-15b-15b-15b--17b-x12-------------------------|
D|-----------------------------------------------------------------------------|
A|-----------------------------------------------------------------------------|
E|-----------------------------------------------------------------------------|

Intro x2
Verse x1
Pre Chorus x1
Chorus x1
Intro x1
Verse x1
Pre Chorus x1
Chorus x1
Bridge x1
Solo x1
Chorus x2
************************************

| /   slide up
| \   slide down
| h   hammer-on
| p   pull-off
| ~   vibrato
| +   harmonic
| x   Mute note
| b   Bend
| pb  Pre-bend
| br  Bend release
| pbr Pre-bend release
| brb Bend release bend

************************************
Добавлено: 03.06.2016
Вам также может быть интересно:
Другие материалы по этой песне:
  • Аккорды и текст

Страница создана 03.06.2016
http://primanota.ru/theory-of-a-deadman/panic-room-chords.htm
Привет, Гость.
Предлагаем пройти революционный курс по гитаре.
Подарок от PrimaNota.Ru, забирай!