PrimaNota.ru - самый крупный в мире бесплатный архив песенных текстов, аккордов, табулатур и нот


Theory Of A Deadman - Fake - таба, видео

Регистрация Запомнить меня
Войти через:  Facebook Google Twitter Vk Yandex Mail.ru

Theory Of A Deadman - Fake - таба, видео

Печатать
Просмотров: 200
Уроки эстрадного вокала в Санкт-Петербурге
Fake
Theory of A Deadman
Gasoline (Special Edition) (2006)

Words & Music by Tyler Connolly, Dean Back, and Dave Brenner

GTR I - Drop C Tuning "Tyler Connolly" (d,A,F,C,G,C)
GTR II - Drop C Tuning "Dave Brenner" (d,A,F,C,G,C)

Intro

  GTR II
d|-------------------------------------------------|
A|-------------------------------------------------|
F|-------------------------------------------------|
C|-------------------------------------------------|
G|-/5-----5----------/5-----5-----------5----------|
C|-----------0-----0-----------0-----0-----3-----3-|

  GTR II
d|-------------------------------------------------|
A|-------------------------------------------------|
F|-------------------------------------------------|
C|-------------------------------------------------|
G|-/5-----5----------/5-----5-----------5----------|
C|-----------0-----0-----------0-----0-----3-----3-|

  GTR II
d|-------------------------------------------------|
A|-------------------------------------------------|
F|-------------------------------------------------|
C|-------------------------------------------------|
G|-/5-----5----------/5-----5-----------5----------|
C|-----------0-----0-----------0-----0-----3-----3-|

  GTR I,II
d|-------------------------------------------------|
A|-------------------------------------------------|
F|-------------------------------------------------|
C|--5--5--5--5\----------------------------3-----3-|
G|--5--5--5--5\----------------5--5--3--5--3-----3-|
C|--5--5--5--5\----------------5--5--3--5--3-----3-|
PM                             .  .  .  .  

Intro 2

  GTR I,II
d|-------------------------------------------------|
A|-------------------------------------------------|
F|-------------------------------------------------|
C|-------------------------------------------------|
G|-/5-----5----------/5-----5-----------5----------|
C|-----------0-----0-----------0-----0-----3-----3-|

  GTR I,II
d|-------------------------------------------------|
A|-------------------------------------------------|
F|-------------------------------------------------|
C|-------------------------------------------------|
G|-/5-----5----------/5-----5-----------5----------|
C|-----------0-----0-----------0-----0-----3-----3-|

  GTR I,II
d|-------------------------------------------------|
A|-------------------------------------------------|
F|--7-----------------7-----------------7----------|
C|--7--------0--------7--------0--------7--3-----3-|
G|--5--------0--------5--------0--------5--3-----3-|
C|-----------0-----------------0-----------3-----3-|

  GTR I,II
d|-------------------------------------------------|
A|-------------------------------------------------|
F|--7----------------------------------------------|
C|--7--------0--------5--------------------3-------|
G|--5--------0--------5-----------------5--3-------|
C|-----------0--------5-----------------5--3-------|
PM                                      .

Verse

  GTR II
d|-------------------------------------------------|
A|-------------------------------------------------|
F|-------------------------------------------------|
C|-------------------------------------------------|
G|--0--0--0--0--0-----0--0--0--0--0----------------|
C|--0--0--0--0--0-----0--0--0--0--0----------------|
PM  .  .  .  .  .     .  .  .  .  .

  GTR II
d|-------------------------------------------------|
A|-------------------------------------------------|
F|-------------------------------------------------|
C|-----------------------------------x-------------|
G|--0--0--0--0--0-----0--0--0--0--0--x--5----------|
C|--0--0--0--0--0-----0--0--0--0--0--x-----3-------|
PM  .  .  .  .  .     .  .  .  .  .

  GTR II
d|-------------------------------------------------|
A|-------------------------------------------------|
F|-------------------------------------------------|
C|-------------------------------------------------|
G|--0--0--0--0--0-----0--0--0--0--0----------------|
C|--0--0--0--0--0-----0--0--0--0--0----------------|
PM  .  .  .  .  .     .  .  .  .  .

  GTR II
d|-------------------------------------------------|
A|-------------------------------------------------|
F|-------------------------------------------------|
C|-----------------------------------x-------------|
G|--0--0--0--0--0-----0--0--0--0--0--x--5----------|
C|--0--0--0--0--0-----0--0--0--0--0--x-----3-------|
PM  .  .  .  .  .     .  .  .  .  .

Pre-Chorus

  GTR I
d|-------------------------------------------------|
A|--------6-----------6-----------6-----------6----|
F|-----7-----7-----------7-----------7-----------7-|
C|-10-------------10----------10----------10-------|
G|-------------------------------------------------|
C|-------------------------------------------------|
 |
 |GTR II
d|-------------------------------------------------|
A|-------------------------------------------------|
F|-------------------------------------------------|
C|-------------------------------------------------|
G|--0--0--0--0--0-----0--0--0--0--0-----------0----|
C|--0--0--0--0--0-----0--0--0--0--0-----------0----|
PM  .  .  .  .  .     .  .  .  .  .           .

  GTR I
d|-------------------------------------------------|
A|--------6-----------6-----------6-----------6----|
F|-----------7-----------7-----------7-----------7-|
C|----10----------10----------10----------10-------|
G|-------------------------------------------------|
C|-------------------------------------------------|
 |
 |GTR II
d|-------------------------------------------------|
A|-------------------------------------------------|
F|-------------------------------------------------|
C|-------------------------------------------------|
G|--0--0--0--0--0-----0--0--0--0--0-----5----------|
C|--0--0--0--0--0-----0--0--0--0--0--------3-------|
PM  .  .  .  .  .     .  .  .  .  .

  GTR I
d|-------------------------------------------------|
A|--------6-----------6-----------6-----------6----|
F|-----------7-----------7-----------7-----------7-|
C|----10----------10----------10----------10-------|
G|-------------------------------------------------|
C|-------------------------------------------------|
 |
 |GTR II
d|-------------------------------------------------|
A|-------------------------------------------------|
F|-------------------------------------------------|
C|-------------------------------------------------|
G|--0--0--0--0--0-----0--0--0--0--0-----------0----|
C|--0--0--0--0--0-----0--0--0--0--0-----------0----|
PM  .  .  .  .  .     .  .  .  .  .           .

  GTR I
d|-------------------------------------------------|
A|--------6-----------6----------------------------|
F|-----------7-----------7-------------------------|
C|----10----------10-------10~---------------------|
G|-------------------------------------------------|
C|-------------------------------------------------|
 |
 |GTR II
d|-------------------------------------------------|
A|-------------------------------------------------|
F|-------------------------------------------------|
C|-------------------------------------------------|
G|--0--0--0--0--0--0--0--0-------------------------|
C|--0--0--0--0--0--0--0--0-------------------------|
PM  .  .  .  .  .  .  .  .            

Chorus

  GTR I,II
d|-------------------------------------------------|
A|-------------------------------------------------|
F|-------------------------------------------------|
C|-------------------------------------------------|
G|-/5-----5----------/5-----5-----------5----------|
C|-----------0-----0-----------0-----0-----3-----3-|

  GTR I,II
d|-------------------------------------------------|
A|-------------------------------------------------|
F|-------------------------------------------------|
C|-------------------------------------------------|
G|-/5-----5----------/5-----5-----------5----------|
C|-----------0-----0-----------0-----0-----3-----3-|

  GTR I,II
d|-------------------------------------------------|
A|-------------------------------------------------|
F|-------------------------------------------------|
C|-------------------------------------------------|
G|-/5-----5----------/5-----5-----------5----------|
C|-----------0-----0-----------0-----0-----3-----3-|

  GTR I,II
d|-------------------------------------------------|
A|-------------------------------------------------|
F|-------------------------------------------------|
C|--------------------5-----------------5--3-------|
G|-/5-----5-----------5-----------------5--3-------|
C|-----------0-----0--5-----------------5--3-------|

Verse

  GTR II
d|-------------------------------------------------|
A|-------------------------------------------------|
F|-------------------------------------------------|
C|-------------------------------------------------|
G|--0--0--0--0--0-----0--0--0--0--0----------------|
C|--0--0--0--0--0-----0--0--0--0--0----------------|
PM  .  .  .  .  .     .  .  .  .  .

  GTR II
d|-------------------------------------------------|
A|-------------------------------------------------|
F|-------------------------------------------------|
C|-----------------------------------x-------------|
G|--0--0--0--0--0-----0--0--0--0--0--x--5----------|
C|--0--0--0--0--0-----0--0--0--0--0--x-----3-------|
PM  .  .  .  .  .     .  .  .  .  .

  GTR II
d|-------------------------------------------------|
A|-------------------------------------------------|
F|-------------------------------------------------|
C|-------------------------------------------------|
G|--0--0--0--0--0-----0--0--0--0--0----------------|
C|--0--0--0--0--0-----0--0--0--0--0----------------|
PM  .  .  .  .  .     .  .  .  .  .

  GTR II
d|-------------------------------------------------|
A|-------------------------------------------------|
F|-------------------------------------------------|
C|-----------------------------------x-------------|
G|--0--0--0--0--0-----0--0--0--0--0--x--5----------|
C|--0--0--0--0--0-----0--0--0--0--0--x-----3-------|
PM  .  .  .  .  .     .  .  .  .  .

Pre-Chorus 2

  GTR I
d|-------------------------------------------------|
A|--------6-----------6-----------6-----------6----|
F|-----7-----7-----------7-----------7-----------7-|
C|-10-------------10----------10----------10-------|
G|-------------------------------------------------|
C|-------------------------------------------------|
 |
 |GTR II
d|-------------------------------------------------|
A|-------------------------------------------------|
F|-------------------------------------------------|
C|-------------------------------------------------|
G|--0--0--0--0--0-----0--0--0--0--0--0--0--0--0--0-|
C|--0--0--0--0--0-----0--0--0--0--0--0--0--0--0--0-|
PM  .  .  .  .  .     .  .  .  .  .  .  .  .  .  .

  GTR I
d|-------------------------------------------------|
A|--------6-----------6-----------6-----------6----|
F|-----------7-----------7-----------7-----------7-|
C|----10----------10----------10----------10-------|
G|-------------------------------------------------|
C|-------------------------------------------------|
 |
 |GTR II
d|-------------------------------------------------|
A|-------------------------------------------------|
F|-------------------------------------------------|
C|--------------------------------------5--3-------|
G|--0--0--0--0--0--0--0--0--0--0--0--0--5--3-------|
C|--0--0--0--0--0--0--0--0--0--0--0--0--5--3-------|
PM  .  .  .  .  .  .  .  .  .  .  .  .

  GTR I
d|-------------------------------------------------|
A|--------6-----------6-----------6-----------6----|
F|-----------7-----------7-----------7-----------7-|
C|----10----------10----------10----------10-------|
G|-------------------------------------------------|
C|-------------------------------------------------|
 |
 |GTR II
d|-------------------------------------------------|
A|-------------------------------------------------|
F|-------------------------------------------------|
C|-------------------------------------------------|
G|--0--0--0--0--0--0--0--0--0--0--0--0--0--0--0--0-|
C|--0--0--0--0--0--0--0--0--0--0--0--0--0--0--0--0-|
PM  .  .  .  .  .  .  .  .  .  .  .  .  .  .  .  .

  GTR I
d|-------------------------------------------------|
A|--------6-----------6----------------------------|
F|-----------7-----------7-------------------------|
C|----10----------10-------10~---------------------|
G|-------------------------------------------------|
C|-------------------------------------------------|
 |
 |GTR II
d|-------------------------------------------------|
A|-------------------------------------------------|
F|-------------------------------------------------|
C|-------------------------------------------------|
G|--0--0--0--0--0--0--0--0-------------------------|
C|--0--0--0--0--0--0--0--0-------------------------|
PM  .  .  .  .  .  .  .  .            

Chorus

  GTR I,II
d|-------------------------------------------------|
A|-------------------------------------------------|
F|-------------------------------------------------|
C|-------------------------------------------------|
G|-/5-----5----------/5-----5-----------5----------|
C|-----------0-----0-----------0-----0-----3-----3-|

  GTR I,II
d|-------------------------------------------------|
A|-------------------------------------------------|
F|-------------------------------------------------|
C|-------------------------------------------------|
G|-/5-----5----------/5-----5-----------5----------|
C|-----------0-----0-----------0-----0-----3-----3-|

  GTR I,II
d|-------------------------------------------------|
A|-------------------------------------------------|
F|-------------------------------------------------|
C|-------------------------------------------------|
G|-/5-----5----------/5-----5-----------5----------|
C|-----------0-----0-----------0-----0-----3-----3-|

  GTR I,II
d|-------------------------------------------------|
A|-------------------------------------------------|
F|-------------------------------------------------|
C|-------------------------------------------------|
G|-/5-----5----------/5-----5-----------5----------|
C|-----------0-----0-----------0-----0-----3-----3-|

  GTR I,II
d|-------------------------------------------------|
A|-------------------------------------------------|
F|-------------------------------------------------|
C|-------------------------------------------------|
G|-/5-----5----------/5-----5-----------5----------|
C|-----------0-----0-----------0-----0-----3-----3-|

  GTR I,II
d|-------------------------------------------------|
A|-------------------------------------------------|
F|-------------------------------------------------|
C|-------------------------------------------------|
G|-/5-----5----------/5-----5-----------5----------|
C|-----------0-----0-----------0-----0-----3-----3-|

  GTR I,II
d|-------------------------------------------------|
A|-------------------------------------------------|
F|-------------------------------------------------|
C|-------------------------------------------------|
G|-/5-----5----------/5-----5-----------5----------|
C|-----------0-----0-----------0-----0-----3-----3-|

  GTR I,II
d|-------------------------------------------------|
A|-------------------------------------------------|
F|-------------------------------------------------|
C|-----------------------------3--3--3-----5--5----|
G|-/5-----5----------/5--------3--3--3-----5--5----|
C|-----------0-----0-----------3--3--3-----5--5--0-|

Interlude

  GTR I,II
d|-------------------------------------------------|
A|-------------------------------------------------|
F|-------------------------------------------------|
C|-------------------------------------------------|
G|--------------5-----------------------5--3-------|
C|-----0--0--------------0--------0--0-----------0-|

  GTR I,II
d|-------------------------------------------------|
A|-------------------------------------------------|
F|-------------------------------------------------|
C|-------------------------------------------------|
G|--------------5-----------------------5--3-------|
C|-----0--0--------------0--------0--0-----------0-|

  GTR I,II
d|-------------------------------------------------|
A|-------------------------------------------------|
F|-------------------------------------------------|
C|-------------------------------------------------|
G|--------------5-----------------------5--3-------|
C|-----0--0--------------0--------0--0-----------0-|

  GTR I
d|-------------------------------------------------|
A|-------------------------------------------------|
F|-------------------------------------------------|
C|----------------------------------------------10-|
G|--------------5----------------------------------|
C|-----0--0--------------0-------------------------|
 |
 |GTR II
d|-------------------------------------------------|
A|-------------------------------------------------|
F|-------------------------------------------------|
C|-----------------------------3--3--3-----5--5--5-|
G|--------------5--------------3--3--3-----5--5--5-|
C|-----0--0--------------0-----3--3--3-----5--5--5-|

Bridge

  GTR I
d|-------------------------------------------------|
A|--------6-----------6-----------6-----------6----|
F|-----7-----7-----------7-----------7-----------7-|
C|----------------10----------10----------10-------|
G|-------------------------------------------------|
C|-------------------------------------------------|

  GTR I
d|-------------------------------------------------|
A|--------6-----------6-----------6-----------6----|
F|-----------7-----------7-----------7-----------7-|
C|----10----------10----------10----------10-------|
G|-------------------------------------------------|
C|-------------------------------------------------|

  GTR I
d|-------------------------------------------------|
A|--------6-----------6-----------6-----------6----|
F|-----------7-----------7-----------7-----------7-|
C|----10----------10----------10----------10-------|
G|-------------------------------------------------|
C|-------------------------------------------------|
 |
 |GTR II
d|-------------------------------------------------|
A|-------------------------------------------------|
F|-------------------------------------------------|
C|-------------------------------------------------|
G|--0--0--0--0--0-----0--0--0--0--0----------------|
C|--0--0--0--0--0-----0--0--0--0--0----------------|
PM  .  .  .  .  .     .  .  .  .  .

  GTR I
d|-------------------------------------------------|
A|--------6-----------6-----------6-----------6----|
F|-----------7-----------7-----------7-----------7-|
C|----10----------10----------10----------10-------|
G|-------------------------------------------------|
C|-------------------------------------------------|
 |
 |GTR II
d|-------------------------------------------------|
A|-------------------------------------------------|
F|-------------------------------------------------|
C|-------------------------------------------------|
G|--0--0--0--0--0-----0--0--0--0--0----------------|
C|--0--0--0--0--0-----0--0--0--0--0----------------|
PM  .  .  .  .  .     .  .  .  .  .

  GTR I
d|-------------------------------------------------|
A|--------6-----------6-----------6-----------6----|
F|-----------7-----------7-----------7-----------7-|
C|----10----------10----------10----------10-------|
G|-------------------------------------------------|
C|-------------------------------------------------|
 |
 |GTR II
d|-------------------------------------------------|
A|-------------------------------------------------|
F|-------------------------------------------------|
C|-------------------------------------------------|
G|--0--0--0--0--0-----0--0--0--0--0----------------|
C|--0--0--0--0--0-----0--0--0--0--0----------------|
PM  .  .  .  .  .     .  .  .  .  .

  GTR I
d|-------------------------------------------------|
A|--------6-----------6-----------6-----------6----|
F|-----------7-----------7-----------7-----------7-|
C|----10----------10----------10----------10-------|
G|-------------------------------------------------|
C|-------------------------------------------------|
 |
 |GTR II
d|-------------------------------------------------|
A|-------------------------------------------------|
F|-------------------------------------------------|
C|-----------------------------------x-------------|
G|--0--0--0--0--0-----0--0--0--0--0--x--5----------|
C|--0--0--0--0--0-----0--0--0--0--0--x-----3-------|
PM  .  .  .  .  .     .  .  .  .  .

  GTR I
d|-------------------------------------------------|
A|--------6-----------6-----------6-----------6----|
F|-----------7-----------7-----------7-----------7-|
C|----10----------10----------10----------10-------|
G|-------------------------------------------------|
C|-------------------------------------------------|
 |
 |GTR II
d|-------------------------------------------------|
A|-------------------------------------------------|
F|-------------------------------------------------|
C|-------------------------------------------------|
G|--0--0--0--0--0-----0--0--0--0--0-----------0----|
C|--0--0--0--0--0-----0--0--0--0--0-----------0----|
PM  .  .  .  .  .     .  .  .  .  .           .

  GTR I
d|-------------------------------------------------|
A|--------6-----------6-----------6-----------6----|
F|-----------7-----------7-----------7-----------7-|
C|----10----------10----------10----------10-------|
G|-------------------------------------------------|
C|-------------------------------------------------|
 |
 |GTR II
d|-------------------------------------------------|
A|-------------------------------------------------|
F|-------------------------------------------------|
C|-------------------------------------------------|
G|--0--0--0--0--0-----0--0--0--0--0-----5----------|
C|--0--0--0--0--0-----0--0--0--0--0--------3-------|
PM  .  .  .  .  .     .  .  .  .  .

  GTR I
d|-------------------------------------------------|
A|--------6-----------6-----------6-----------6----|
F|-----------7-----------7-----------7-----------7-|
C|----10----------10----------10----------10-------|
G|-------------------------------------------------|
C|-------------------------------------------------|
 |
 |GTR II
d|-------------------------------------------------|
A|-------------------------------------------------|
F|-------------------------------------------------|
C|-------------------------------------------------|
G|--0--0--0--0--0-----0--0--0--0--0-----------0----|
C|--0--0--0--0--0-----0--0--0--0--0-----------0----|
PM  .  .  .  .  .     .  .  .  .  .           .

  GTR I
d|---------------------------------------------------------------------|
A|--------6-----------6------------------------------------------------|
F|-----------7-----------7---------------------------------------------|
C|----10----------10-------10~-----------------------------------------|
G|---------------------------------------------------------------------|
C|---------------------------------------------------------------------|
 |
 |GTR II
d|---------------------------------------------------------------------|
A|---------------------------------------------------------------------|
F|---------------------------------------------------------------------|
C|---------------------------------------------------------------------|
G|--0--0--0--0--0--0--0--0---------------------------------------------|
C|--0--0--0--0--0--0--0--0---------------------------------------------|
PM  .  .  .  .  .  .  .  .            

Chorus 3

  GTR I,II
d|-------------------------------------------------|
A|-------------------------------------------------|
F|-------------------------------------------------|
C|-------------------------------------------------|
G|-/5-----5----------/5-----5-----------5----------|
C|-----------0-----0-----------0-----0-----3-----3-|

  GTR I,II
d|-------------------------------------------------|
A|-------------------------------------------------|
F|-------------------------------------------------|
C|-------------------------------------------------|
G|-/5-----5----------/5-----5-----------5----------|
C|-----------0-----0-----------0-----0-----3-----3-|

  GTR I,II
d|-------------------------------------------------|
A|-------------------------------------------------|
F|-------------------------------------------------|
C|-------------------------------------------------|
G|-/5-----5----------/5-----5-----------5----------|
C|-----------0-----0-----------0-----0-----3-----3-|

  GTR I,II
d|-------------------------------------------------|
A|-------------------------------------------------|
F|-------------------------------------------------|
C|-------------------------------------------------|
G|-/5-----5----------/5-----5-----------5----------|
C|-----------0-----0-----------0-----0-----3-----3-|

  GTR I,II
d|-------------------------------------------------|
A|-------------------------------------------------|
F|-------------------------------------------------|
C|-------------------------------------------------|
G|-/5-----5----------/5-----5-----------5----------|
C|-----------0-----0-----------0-----0-----3-----3-|

  GTR I,II
d|-------------------------------------------------|
A|-------------------------------------------------|
F|-------------------------------------------------|
C|-------------------------------------------------|
G|-/5-----5----------/5-----5-----------5----------|
C|-----------0-----0-----------0-----0-----3-----3-|

  GTR I,II
d|-------------------------------------------------|
A|-------------------------------------------------|
F|-------------------------------------------------|
C|-------------------------------------------------|
G|-/5-----5----------/5-----5-----------5----------|
C|-----------0-----0-----------0-----0-----3-----3-|

  GTR I,II
d|-------------------------------------------------|
A|-------------------------------------------------|
F|-------------------------------------------------|
C|-------------------------------------------------|
G|-/5-----5----------/5-----5-----------5----------|
C|-----------0-----0-----------0-----0-----3-----3-|

Outro

  GTR I
d|-------------------------------------------------|
A|--------6-----------6-----------6-----------6----|
F|-----7-----7-----------7-----------7-----------7-|
C|-10-------------10----------10----------10-------|
G|-------------------------------------------------|
C|-------------------------------------------------|
 |
 |GTR II
d|-------------------------------------------------|
A|-------------------------------------------------|
F|--7-----------------7-----------------7----------|
C|--7--------0--------7--------0--------7--3-----3-|
G|--5--------0--------5--------0--------5--3-----3-|
C|-----------0-----------------0-----------3-----3-|

  GTR I
d|-------------------------------------------------|
A|--------6-----------6-----------6-----------6----|
F|-----------7-----------7-----------7-----------7-|
C|----10----------10----------10----------10-------|
G|-------------------------------------------------|
C|-------------------------------------------------|
 |
 |GTR II
d|-------------------------------------------------|
A|-------------------------------------------------|
F|--7-----------------7-----------------7----------|
C|--7--------0--------7--------0--------7--3-------|
G|--5--------0--------5--------0--------5--3-------|
C|-----------0-----------------0-----------3-------|

  GTR I
d|-------------------------------------------------|
A|--------6-----------6-----------6-----------6----|
F|-----------7-----------7-----------7-----------7-|
C|----10----------10----------10----------10-------|
G|-------------------------------------------------|
C|-------------------------------------------------|
 |
 |GTR II
d|-------------------------------------------------|
A|-------------------------------------------------|
F|--7-----------------7-----------------7----------|
C|--7--------0--------7--------0--------7--3-----3-|
G|--5--------0--------5--------0--------5--3-----3-|
C|-----------0-----------------0-----------3-----3-|

  GTR I
d|-------------------------------------------------|
A|--------6-----------6----------------------------|
F|-----------7-----------7-------------------------|
C|----10----------10-------10~---------------------|
G|-------------------------------------------------|
C|-------------------------------------------------|
 |
 |GTR II
d|-------------------------------------------------|
A|-------------------------------------------------|
F|--7----------------------------------------------|
C|--7--------0--------5--------------------3-------|
G|--5--------0--------5-----------------5--3-------|
C|-----------0--------5-----------------5--3-------|
PM                                      .

| b  bend
| r  release bend
|trp triplet
|PH. pinch harmonic
|fbk feedback
| .  palm-mute
| /  slide up
| \  slide down
| h  hammer-on
| p  pull-off
| ~  vibrato
|(7) harmonic
| x  Mute note
===============================================================================

Добавлено: 18.08.2013
Другие материалы по этой песне:
  • Аккорды и текст

Страница создана 18.08.2013
http://primanota.ru/theory-of-a-deadman/fake-chords.htm
Привет, Гость.
Предлагаем пройти революционный курс по гитаре.
Подарок от PrimaNota.Ru, забирай!