PrimaNota.ru - самый крупный в мире бесплатный архив песенных текстов, аккордов, табулатур и нот


Theory Of A Deadman - We Were Men - текст песни, таба, видео

Регистрация Запомнить меня
Войти через:  Facebook Google Twitter Vk Yandex Mail.ru

Theory Of A Deadman - We Were Men - текст песни, таба, видео

Печатать
Просмотров: 325
Band: Theory of a Deadman
Song: We Were Men
Album: The Truth is...
Tuning: Drop D

Intro
|-----------------
|-----------------
|---------------2-
|-2-3-2-3-2-3-----
|-------------5---
|-----------------

Verse
|---------------------------------
|---------------------------------
|---------------------------------
|-0-0-0-0-3-3-3-3-5-5-5-5-8-8-7-7-
|-0-0-0-0-3-3-3-3-5-5-5-5-8-8-7-7-
|-0-0-0-0-3-3-3-3-5-5-5-5-8-8-7-7-

Pre Chorus
|---------------------------------
|---------------------------------
|---------------------------------
|-8-8-8-8-8-8-8-8-7-7-7-7-7-------
|-8-8-8-8-8-8-8-8-7-7-7-7-7-------
|-8-8-8-8-8-8-8-8-7-7-7-7-7-------

Chorus
|---------------------------------
|---------------------------------
|---------------------------------
|-0-0-0-0-2-2-2-2-8-8-8-8-8-8-8-8-
|-0-0-0-0-2-2-2-2-8-8-8-8-8-8-8-8-
|-0-0-0-0-2-2-2-2-8-8-8-8-8-8-8-8-

|---------------------------------
|---------------------------------
|---------------------------------
|-0-0-0-0-2-2-2-2-8-8-8-8-8-8s1010
|-0-0-0-0-2-2-2-2-8-8-8-8-8-8s1010
|-0-0-0-0-2-2-2-2-8-8-8-8-8-8s1010

|---------------------------------
|---------------------------------
|---------------------------------
|-0-0-0-0-101010108-8-8-8-8-8-8-8-
|-0-0-0-0-101010108-8-8-8-8-8-8-8-
|-0-0-0-0-101010108-8-8-8-8-8-8-8-

|---------------------------------
|---------------------------------
|---------------------------------
|-0-0-0-0-2-2-2-2-8-8-8-8-8---7---
|-0-0-0-0-2-2-2-2-8-8-8-8-8---7---
|-0-0-0-0-2-2-2-2-8-8-8-8-8---7---

Bridge
|---------------------------------
|---------------------------------
|---------------------------------
|-5-5-5-5-5-5-5-5-7-7-7-7-7-7-7-7-
|-5-5-5-5-5-5-5-5-7-7-7-7-7-7-7-7-
|-5-5-5-5-5-5-5-5-7-7-7-7-7-7-7-7-

|---------------------------------
|---------------------------------
|---------------------------------
|-8-8-8-8-8-8-8-8-101010107-7-7-7-
|-8-8-8-8-8-8-8-8-101010107-7-7-7-
|-8-8-8-8-8-8-8-8-101010107-7-7-7-
Добавлено: 18.10.2014
Другие материалы по этой песне:
  • Аккорды и текст

Страница создана 04.08.2013
http://primanota.ru/theory-of-a-deadman/we-were-men-chords.htm
Привет, Гость.
Предлагаем пройти революционный курс по гитаре.
Подарок от PrimaNota.Ru, забирай!