PrimaNota.ru - самый крупный в мире бесплатный архив песенных текстов, аккордов, табулатур и нот


Theory Of A Deadman - Theory Of A Deadman - таба, видео

Регистрация Запомнить меня
Войти через:  Facebook Google Twitter Vk Yandex Mail.ru

Theory Of A Deadman - Theory Of A Deadman - таба, видео

Печатать
Просмотров: 140
Theory of A Deadman (2002)
Theory of A Deadman

1.  Invisible Man                   - Drop B Tuning (c#,G#,E,B,F#,B)
2.  Nothing Could Come Between Us   - Drop B Tuning (c#,G#,E,B,F#,B)
3.  Make Up Your Mind               - Drop B Tuning (c#,G#,E,B,F#,B)
4.  Point To Prove                  - Drop C# Tuning (d#,A#,F#,C#,G#,C#)
5.  Leg To Stand On                 - Drop B Tuning (c#,G#,E,B,F#,B)
6.  What You Deserve                - Drop B Tuning (c#,G#,E,B,F#,B)
7.  The Last Song                   - Drop B Tuning (c#,G#,E,B,F#,B)
8.  Say I'm Sorry                   - Drop B Tuning (c#,G#,E,B,F#,B)
9.  Any Other Way                   - Drop B Tuning (c#,G#,E,B,F#,B)
10. Confession                      - Drop C Tuning (d,A,F,C,G,C)
11. Above This (Bonus Track)        - Drop B Tuning (c#,G#,E,B,F#,B)

------------------------------------------------------------------------------
1. Invisible Man
   Words & Music by Tyler Connolly and Chad Kroeger
------------------------------------------------------------------------------

GTR I - Drop B Tuning "Tyler Connolly" (c#,G#,E,B,F#,B)
GTR II - Drop B Tuning "Dave Brenner" (c#,G#,E,B,F#,B)

   GTR I
c#|-------------------------------------------------|
G#|-------------------------------------------------|
 E|-------------------------------------------------|
 B|--x--2--2--2--2--2--2--2--x--5--5--5--5--5--5--5-|
F#|--x--2--2--2--2--2--2--2--x--5--5--5--5--5--5--5-|
 B|--x--2--2--2--2--2--2--2--x--5--5--5--5--5--5--5-|

   GTR I
c#|-------------------------------------------------|
G#|-------------------------------------------------|
 E|-------------------------------------------------|
 B|--x--2--2--2--2--2--2--2--x--5--5--5--7--7-----7-|
F#|--x--2--2--2--2--2--2--2--x--5--5--5--7--7-----7-|
 B|--x--2--2--2--2--2--2--2--x--5--5--5--7--7-----7-|
  |
  |GTR II
c#|-------------------------------------------------|
G#|-------------------------------------------------|
 E|-------------------------------------------------|
 B|--------------------------------------7--7-----7-|
F#|--------------------------------------7--7-----7-|
 B|--------------------------------------7--7-----7-|

Main Riff

   GTR I,II
c#|-------------------------------------------------|
G#|-----------------------5-----------5-------------|
 E|-----------------------4-----------4-------------|
 B|--5--6--5--2-----2--2--2-----2--2--2-----2--2--2-|
F#|--5--6--5--2-----2--2--------2--2--------2--2--2-|
 B|--5--6--5--2-----2--2--------2--2--------2--2--2-|

   GTR I,II
c#|-------------------------------------------------|
G#|-----------------------5-------------------------|
 E|-----------------------4-------------------------|
 B|--5--6--5--2-----2--2--2-----2--2--2--7--7-----7-|
F#|--5--6--5--2-----2--2--------2--2--2--7--7-----7-|
 B|--5--6--5--2-----2--2--------2--2--2--7--7-----7-|

   GTR I
c#|-------------------------------------------------|
G#|-------------------------------------------------|
 E|--------------------------------9-----9--9-------|
 B|---------------------------/12----12-------12-12~|
F#|-------------------------------------------------|
 B|-------------------------------------------------|
  |
  |GTR II
c#|-------------------------------------------------|
G#|-----------------------5-----------5-------------|
 E|-----------------------4-----------4-------------|
 B|--5--6--5--2-----2--2--2-----2--2--2-----2--2--2-|
F#|--5--6--5--2-----2--2--------2--2--------2--2--2-|
 B|--5--6--5--2-----2--2--------2--2--------2--2--2-|

   GTR I
c#|-------------------------------------------------|
G#|-------------------------------------------------|
 E|-----9-------------/9--7~------------------------|
 B|-------------------------------------------------|
F#|-------------------------------------------------|
 B|-------------------------------------------------|
  |
  |GTR II
c#|-------------------------------------------------|
G#|-----------------------3-------------------------|
 E|-----------------------2-------------------------|
 B|--5--6--5--2-----2--2--0-------------------------|
F#|--5--6--5--2-----2--2--0-------------------------|
 B|--5--6--5--2-----2--2--0-------------------------|

Verse

   GTR II
c#|-------------------------------------------------|
G#|-------------------------------------------------|
 E|-------------------------------------------------|
 B|-----------2-------------------------------------|
F#|-----------------2--2--2-----2--2--2-----2--2--2-|
 B|--5~----2--------2--2--2-----2--2--2-----2--2--2-|
           .        .  .  .     .  .  .     .  .  .

   GTR II
c#|-------------------------------------------------|
G#|-------------------------------------------------|
 E|-------------------------------------------------|
 B|-----------2-------------------------------------|
F#|-----------------2--2--2-----2--2--2-----2--2--2-|
 B|--5~----2--------2--2--2-----2--2--2-----2--2--2-|
           .        .  .  .     .  .  .     .  .  .

   GTR II
c#|-------------------------------------------------|
G#|-------------------------------------------------|
 E|-------------------------------------------------|
 B|-----------2-------------------------------------|
F#|-----------------2--2--2-----2--2--2-----2--2--2-|
 B|--5~----2--------2--2--2-----2--2--2-----2--2--2-|
           .        .  .  .     .  .  .     .  .  .

   GTR I
c#|-------------------------------------------------|
G#|-----------------------3-------------------------|
 E|-----------------------2-------------------------|
 B|-----------------------0-------------------------|
F#|-----------------------0-------------------------|
 B|-----------------------0-------------------------|
  |
  |GTR II
c#|-------------------------------------------------|
G#|-----------------------3-------------------------|
 E|-----------------------2-------------------------|
 B|-----------2-----------0-------------------------|
F#|-----------------2--2--0-------------------------|
 B|--5~----2--------2--2--0-------------------------|
           .        .  .                            

Chorus

   GTR I,II
c#|-------------------------------------------------|
G#|-------------------------------------------------|
 E|-------------------------------------------------|
 B|-----2--2--2--2--2--2--2-----5--5--5--5--5--5--5-|
F#|-----2--2--2--2--2--2--2-----5--5--5--5--5--5--5-|
 B|-----2--2--2--2--2--2--2-----5--5--5--5--5--5--5-|

   GTR I,II
c#|-------------------------------------------------|
G#|-------------------------------------------------|
 E|-------------------------------------------------|
 B|-----2--2--2--2--2--2--2-----5--5--5--7--7-----7-|
F#|-----2--2--2--2--2--2--2-----5--5--5--7--7-----7-|
 B|-----2--2--2--2--2--2--2-----5--5--5--7--7-----7-|

   GTR I,II
c#|-------------------------------------------------|
G#|-------------------------------------------------|
 E|-------------------------------------------------|
 B|-----2--2--2--2--2--2--2-----5--5--5--5--5--5--5-|
F#|-----2--2--2--2--2--2--2-----5--5--5--5--5--5--5-|
 B|-----2--2--2--2--2--2--2-----5--5--5--5--5--5--5-|

   GTR I,II
c#|-------------------------------------------------|
G#|-------------------------------------------------|
 E|-------------------------------------------------|
 B|-----2--2--2--2--2--2--2-----5--5--5--5--5--5--5-|
F#|-----2--2--2--2--2--2--2-----5--5--5--5--5--5--5-|
 B|-----2--2--2--2--2--2--2-----5--5--5--5--5--5--5-|

   GTR I,II
c#|-------------------------------------------------------------------------|
G#|-------------------------------------------------------------------------|
 E|-------------------------------------------------------------------------|
 B|--7--7--7--7--7--7--7--7--7--7--7--7--7--7-------------------------------|
F#|--7--7--7--7--7--7--7--7--7--7--7--7--7--7-------------------------------|
 B|--7--7--7--7--7--7--7--7--7--7--7--7--7--7-------------------------------|

Post Chorus

   GTR I,II
c#|-------------------------------------------------|
G#|-----------------------5-----------5-------------|
 E|-----------------------4-----------4-------------|
 B|--5--6--5--2-----2--2--2-----2--2--2-----2--2--2-|
F#|--5--6--5--2-----2--2--------2--2--------2--2--2-|
 B|--5--6--5--2-----2--2--------2--2--------2--2--2-|

   GTR I
c#|-------------------------------------------------|
G#|-------------------------------------------------|
 E|-------------------/9--7~------------------------|
 B|-------------------------------------------------|
F#|-------------------------------------------------|
 B|-------------------------------------------------|
  |
  |GTR II
c#|-------------------------------------------------|
G#|-----------------------3-------------------------|
 E|-----------------------2-------------------------|
 B|--5--6--5--2-----2--2--0-------------------------|
F#|--5--6--5--2-----2--2--0-------------------------|
 B|--5--6--5--2-----2--2--0-------------------------|

Verse   - 1x
Chorus  - 1x

Post Chorus 2

   GTR I,II
c#|-------------------------------------------------|
G#|-------------------------------------------------|
 E|-------------------------------------------------|
 B|--------------------------------------------5----|
F#|--2--2--------2--2--------2--2-----------2--5--0-|
 B|--2--2--------2--2--------2--2-----------2--5--0-|
     .  .        .  .        .  .           .     .

Interlude

   GTR I,II
c#|-------------------------------------------------|
G#|-------------------------------------------------|
 E|--5-----5--5--5--5--5--5--5--5--5--5--5----------|
 B|--5-----5--5--5--5--5--5--5--5--5--5--5-----5----|
F#|--3-----3--3--3--3--3--3--3--3--3--3--3--2--5--0-|
 B|-----------------------------------------2--5--0-|
                                            .     .

   GTR I,II
c#|-------------------------------------------------|
G#|--3-----3--3--3--3--3--3--3--3--3--3--3----------|
 E|--2-----2--2--2--2--2--2--2--2--2--2--2----------|
 B|--0-----0--0--0--0--0--0--0--0--0--0--0-----5----|
F#|--0-----0--0--0--0--0--0--0--0--0--0--0--2--5--0-|
 B|-----------------------------------------2--5--0-|
                                            .     .

   GTR I,II
c#|-------------------------------------------------|
G#|-------------------------------------------------|
 E|--5-----5--5--5--5--5--5--5--5--5--5--5----------|
 B|--5-----5--5--5--5--5--5--5--5--5--5--5-----5----|
F#|--3-----3--3--3--3--3--3--3--3--3--3--3--2--5--0-|
 B|-----------------------------------------2--5--0-|
                                            .     .

   GTR I
c#|-------------------------------------------------|
G#|-------------------------------------------------|
 E|-------------------------------------------------|
 B|-------------------------------------------------|
F#|-----------------------------------------Picksld-|
 B|-----------------------------------------Picksld-|
  |
  |GTR II
c#|-------------------------------------------------|
G#|--3-----3--3--3--3--3--3--3--3--3--3--3--3--3--3-|
 E|--2-----2--2--2--2--2--2--2--2--2--2--2--2--2--2-|
 B|--0-----0--0--0--0--0--0--0--0--0--0--0--0--0--0-|
F#|--0-----0--0--0--0--0--0--0--0--0--0--0--0--0--0-|
 B|-------------------------------------------------|
                                                   
Guitar Solo

   GTR I
c#|-------------------------------------------------|
G#|-------------------------------------------------|
 E|-------------------------------------------------|
 B|-------------------------------------------------|
F#|--5/----7b----r-----b-----r-----------7~---------|
 B|-------------------------------------------------|
  |
  |GTR II
c#|-------------------------------------------------|
G#|--------------5-----------5-----------5----------|
 E|--------------4-----------4-----------4----------|
 B|--------------2-----------2-----------2----------|
F#|--------------2-----------2-----------2----------|
 B|--5b---r5-----2-----------2-----------2----------|

   GTR I                                PH.
c#|-------------------------------------------------|
G#|-------------------------------------------------|
 E|-------------------------(5)---------------------|
 B|-------------------------------------------------|
F#|-10\----7~---------------------------------------|
 B|--------------------------------------2~---------|
  |
  |GTR II
c#|-------------------------------------------------|
G#|--------------5-----------5-----------5----------|
 E|--------------4-----------4-----------4----------|
 B|--------------2-----------2-----------2----------|
F#|--------------2-----------2-----------2----------|
 B|--5b---r5-----2-----------2-----------2----------|

   GTR I
c#|-------------------------------------------------|
G#|-------------------------------------------------|
 E|-------------------------------12----------------|
 B|----------------------------------14-14~---------|
F#|-------10-12--b--r--b--r-12-14-------------------|
 B|-12-14-------------------------------------------|
  |  .  .                    .  .     .
  |GTR II
c#|-------------------------------------------------|
G#|--------------5-----------5-----------5----------|
 E|--------------4-----------4-----------4----------|
 B|--------------2-----------2-----------2----------|
F#|--------------2-----------2-----------2----------|
 B|--5b---r5-----2-----------2-----------2----------|

   GTR I
c#|-------------------------------------------------|
G#|-------------------------------------------------|
 E|----------------------19b------------------------|
 B|----17----19b19p17-------------------------------|
F#|-19----19----------19----------------------------|
 B|-------------------------------------------------|
  |
  |GTR II
c#|-------------------------------------------------|
G#|-----------------------3-------------------------|
 E|-----------------------2-------------------------|
 B|-----------------5-----0-------------------------|
F#|-----------0--2--5--0--0-------------------------|
 B|--5b---r5--0--2--5--0--0-------------------------|
              .  .     .

Chorus 2

   GTR I,II
c#|-------------------------------------------------|
G#|-------------------------------------------------|
 E|-------------------------------------------------|
 B|-----2--2--2--2--2--2--2-----5--5--5--5--5--5--5-|
F#|-----2--2--2--2--2--2--2-----5--5--5--5--5--5--5-|
 B|-----2--2--2--2--2--2--2-----5--5--5--5--5--5--5-|

   GTR I,II
c#|-------------------------------------------------|
G#|-------------------------------------------------|
 E|-------------------------------------------------|
 B|-----2--2--2--2--2--2--2-----5--5--5--7--7-----7-|
F#|-----2--2--2--2--2--2--2-----5--5--5--7--7-----7-|
 B|-----2--2--2--2--2--2--2-----5--5--5--7--7-----7-|

   GTR I,II
c#|-------------------------------------------------|
G#|-------------------------------------------------|
 E|-------------------------------------------------|
 B|-----2--2--2--2--2--2--2-----5--5--5--5--5--5--5-|
F#|-----2--2--2--2--2--2--2-----5--5--5--5--5--5--5-|
 B|-----2--2--2--2--2--2--2-----5--5--5--5--5--5--5-|

   GTR I,II
c#|-------------------------------------------------|
G#|-------------------------------------------------|
 E|-------------------------------------------------|
 B|-----2--2--2--2--2--2--2-----5--5--5--5--5--5----|
F#|-----2--2--2--2--2--2--2-----5--5--5--5--5--5----|
 B|-----2--2--2--2--2--2--2-----5--5--5--5--5--5----|

   GTR I,II
c#|----------------------------------------|
G#|----------------------------------------|
 E|----------------------------------------|
 B|-----5--------5--------8--7--5--7--5--8-|
F#|-----5--------5--------8--7--5--7--5--8-|
 B|-----5--------5--------8--7--5--7--5--8-|

Outro

   GTR I
c#|-------------------------------------------------|
G#|-------------------------------------------------|
 E|-------------------------12----12-12-12-12-12-12-|
 B|-14----14-14-14-14-14-14-------------------------|
F#|-------------------------------------------------|
 B|-------------------------------------------------|
  |
  |GTR II
c#|-------------------------------------------------|
G#|-----------5--5--5--5--5-----------8--8--8--8--8-|
 E|-----------4--4--4--4--4-----------7--7--7--7--7-|
 B|--2-----2--2--2--2--2--2--5-----5--5--5--5--5--5-|
F#|--2-----2--2--2--2--2--2--5-----5--5--5--5--5--5-|
 B|--2-----2--2--2--2--2--2--5-----5--5--5--5--5--5-|

   GTR I
c#|-------------------------------------------------|
G#|-------------------------------------------------|
 E|-------------------------------------------------|
 B|-14----14-14-14-14-14-14-12----12-12-12-12-12-12-|
F#|-------------------------------------------------|
 B|-------------------------------------------------|
  |
  |GTR II
c#|-------------------------------------------------|
G#|-----------5--5--5--5--5-----------8--8--8--8--8-|
 E|-----------4--4--4--4--4-----------7--7--7--7--7-|
 B|--2-----2--2--2--2--2--2--5-----5--5--5--5--5--5-|
F#|--2-----2--2--2--2--2--2--5-----5--5--5--5--5--5-|
 B|--2-----2--2--2--2--2--2--5-----5--5--5--5--5--5-|

   GTR I
c#|-------------------------------------------------|
G#|-------------------------------------------------|
 E|-------------------------12----12-12-12-12-12-12-|
 B|-14----14-14-14-14-14-14-------------------------|
F#|-------------------------------------------------|
 B|-------------------------------------------------|
  |
  |GTR II
c#|-------------------------------------------------|
G#|-----------5--5--5--5--5-----------8--8--8--8--8-|
 E|-----------4--4--4--4--4-----------7--7--7--7--7-|
 B|--2-----2--2--2--2--2--2--5-----5--5--5--5--5--5-|
F#|--2-----2--2--2--2--2--2--5-----5--5--5--5--5--5-|
 B|--2-----2--2--2--2--2--2--5-----5--5--5--5--5--5-|

   GTR I
c#|-------------------------------------------------|
G#|-------------------------------------------------|
 E|-------------------------------------------------|
 B|-14----14-14-14-14-14-14-12----12-12-12-12-12-12-|
F#|-------------------------------------------------|
 B|-------------------------------------------------|
  |
  |GTR II
c#|-------------------------------------------------|
G#|-----------5--5--5--5--5-----------8--8--8--8--8-|
 E|-----------4--4--4--4--4-----------7--7--7--7--7-|
 B|--2-----2--2--2--2--2--2--5-----5--5--5--5--5--5-|
F#|--2-----2--2--2--2--2--2--5-----5--5--5--5--5--5-|
 B|--2-----2--2--2--2--2--2--5-----5--5--5--5--5--5-|

   GTR I
c#|-------------------------------------------------|
G#|-------------------------------------------------|
 E|-------------------------------------------------|
 B|-14~---------------------------------------------|
F#|-------------------------------------------------|
 B|-------------------------------------------------|
  |
  |GTR II
c#|-------------------------------------------------|
G#|-------------------------------------------------|
 E|-------------------------------------------------|
 B|--7--7--7--7--7--7--7--7--7--7--7--7--7--7--7--7-|
F#|--7--7--7--7--7--7--7--7--7--7--7--7--7--7--7--7-|
 B|--7--7--7--7--7--7--7--7--7--7--7--7--7--7--7--7-|

   GTR I
c#|-------------------------------------------------|
G#|-------------------------------------------------|
 E|-------------------------12-14-12----------------|
 B|----------------------------------14\------------|
F#|-------------------------------------------------|
 B|-------------------------------------------------|
  |
  |GTR II
c#|-------------------------------------------------|
G#|-------------------------------------------------|
 E|-------------------------------------------------|
 B|--7--7--7--7--7--7--7--7--5--7--5--2-------------|
F#|--7--7--7--7--7--7--7--7--5--7--5--2-------------|
 B|--7--7--7--7--7--7--7--7--5--7--5--2-------------|

END

------------------------------------------------------------------------------
2. Nothing Could Come Between Us
   Words & Music by Tyler Connolly
------------------------------------------------------------------------------

NOTE: The solo is a bit iffy, but I think it is close.

GTR I - Drop B Tuning "Tyler Connolly" (c#,G#,E,B,F#,B)
GTR II - Drop B Tuning "Dave Brenner" (c#,G#,E,B,F#,B)
GTR III - Drop B Tuning Acoustic "Fill" (c#,G#,E,B,F#,B)
GTR IV - Drop B Tuning "Electric Fill" (c#,G#,E,B,F#,B)

Intro

   GTR II
c#|-----------------------0-------------------------|
G#|-----------------------3-----------------0-------|
 E|-------------------------------------------------|
 B|--2-----------2-----2-----------2-----2----------|
F#|--2-----------2-----2-----------2-----2----------|
 B|--2-----------2-----2-----------2-----2----------|

   GTR II
c#|-----------------------0-----------------0-------|
G#|-----------------------8-----------------8-------|
 E|-------------------------------------------------|
 B|--7-----------7-----7-----------7-----7----------|
F#|--7-----------7-----7-----------7-----7----------|
 B|--7-----------7-----7-----------7-----7----------|

   GTR II
c#|-----------------------0-----------------0-------|
G#|-----------------------3-----------------3-------|
 E|-------------------------------------------------|
 B|--2-----------2-----2-----------2-----2----------|
F#|--2-----------2-----2-----------2-----2----------|
 B|--2-----------2-----2-----------2-----2----------|

   GTR I
c#|-------------------------------------------------|
G#|-------------------------------------------------|
 E|-------------------------------------------------|
 B|-----------------------------------------0-------|
F#|-----------------------------------------0-------|
 B|-----------------------------------------0-------|
  |
  |GTR II
c#|-------------------------------------------------|
G#|-------------------------------------------------|
 E|-------------------------------------------------|
 B|--7--------------------------------------0-------|
F#|--7--------------------------------------0-------|
 B|--7--------------------------------------0-------|

   GTR I,II
c#|-------------------------------------------------|
G#|-----------------------3-----------------3-------|
 E|-------------------------------------------------|
 B|--2-----------2-----2-----------2-----2----------|
F#|--2-----------2-----2-----------2-----2----------|
 B|--2-----------2-----2-----------2-----2----------|

   GTR I,II
c#|-----------------------0-------------------------|
G#|-----------------------8-------------------------|
 E|-------------------------------------------------|
 B|--7-----------7-----7-----------7-----7--0-------|
F#|--7-----------7-----7-----------7-----7--0-------|
 B|--7-----------7-----7-----------7-----7--0-------|

   GTR I,II
c#|-----------------------0-----------------0-------|
G#|-----------------------3-----------------3-------|
 E|-------------------------------------------------|
 B|--2-----------2-----2-----------2-----2----------|
F#|--2-----------2-----2-----------2-----2----------|
 B|--2-----------2-----2-----------2-----2----------|

   GTR I,II
c#|-----------------------0-------------------------|
G#|-----------------------8-------------------------|
 E|-------------------------------------------------|
 B|--7-----------7-----7-----------7-----7--0-------|
F#|--7-----------7-----7-----------7-----7--0-------|
 B|--7-----------7-----7-----------7-----7--0-------|

Verse

   GTR I,II
c#|--------------------------0----------------------|
G#|--------------------------------------3----------|
 E|-------------------------------------------------|
 B|--2----------------------------------------------|
F#|--2----------------------------------------------|
 B|--2----------------------------------------------|

   GTR I,II
c#|--------------------------0-----------------0----|
G#|-----------------------------------8-------------|
 E|-------------------------------------------------|
 B|--7----------------------------------------------|
F#|--7----------------------------------------------|
 B|--7----------------------------------------------|

   GTR I,II
c#|--------------------------0----------------------|
G#|--------------------------------------3----------|
 E|-------------------------------------------------|
 B|--2----------------------------------------------|
F#|--2----------------------------------------------|
 B|--2----------------------------------------------|

   GTR I,II
c#|--------------------------0----------------------|
G#|-----------------------------------8-------------|
 E|-------------------------------------------------|
 B|--7----------------------------------------------|
F#|--7----------------------------------------------|
 B|--7--------------------------------------0-------|

   GTR I,II
c#|--------------------------0----------------------|
G#|--------------------------------------3----------|
 E|-------------------------------------------------|
 B|--2----------------------------------------------|
F#|--2----------------------------------------------|
 B|--2----------------------------------------------|
  |
  |GTR III
c#|--------------------------0----------------------|
G#|--------------------------------------3----------|
 E|-------------------------------------------------|
 B|-------------------------------------------------|
F#|-------------------------------------------------|
 B|-------------------------------------------------|

   GTR I,II
c#|--------------------------0-----------------0----|
G#|-----------------------------------8-------------|
 E|-------------------------------------------------|
 B|--7----------------------------------------------|
F#|--7----------------------------------------------|
 B|--7----------------------------------------------|
  |
  |GTR III
c#|--------------------------0-----------------0----|
G#|-----------------------------------8-------------|
 E|-------------------------------------------------|
 B|-------------------------------------------------|
F#|-------------------------------------------------|
 B|-------------------------------------------------|

   GTR I,II
c#|--------------------------0----------------------|
G#|--------------------------------------3----------|
 E|-------------------------------------------------|
 B|--2----------------------------------------------|
F#|--2----------------------------------------------|
 B|--2----------------------------------------------|
  |
  |GTR III
c#|--------------------------0----------------------|
G#|--------------------------------------3----------|
 E|-------------------------------------------------|
 B|-------------------------------------------------|
F#|-------------------------------------------------|
 B|-------------------------------------------------|

   GTR I
c#|-------------------------------------------------|
G#|-------------------------------------------------|
 E|-------------------------------------------------|
 B|--7----------------------------------------------|
F#|--7----------------------------------------------|
 B|--7----------------------------------------------|
  |
  |GTR II
c#|-------------------------------------------------|
G#|-------------------------------------------------|
 E|-------------------------------------------------|
 B|--7\---------------------------------------------|
F#|--7\----------------------Pickslide--------------|
 B|--7\----------------------Pickslide--------------|

Chorus

   GTR I
c#|--------0-----------0-----------5-----------5----|
G#|--------------3-----------------------8----------|
 E|-------------------------------------------------|
 B|--2----------------------------------------------|
F#|--------------------------7----------------------|
 B|-------------------------------------------------|
  |
  |GTR II
c#|-------------------------------------------------|
G#|-------------------------------------------------|
 E|-------------------------------------------------|
 B|--2-----2-----2-----2-----0-----0-----0-----0----|
F#|--2-----2-----2-----2-----0-----0-----0-----0----|
 B|--2-----2-----2-----2-----0-----0-----0-----0----|

   GTR I
c#|--------0-----------0-----------0-----------0----|
G#|--------------3-----------------------3----------|
 E|-------------------------------------------------|
 B|--2-----------------------2----------------------|
F#|-------------------------------------------------|
 B|-------------------------------------------------|
  |
  |GTR II
c#|-------------------------------------------------|
G#|-------------------------------------------------|
 E|-------------------------------------------------|
 B|--7-----7-----7-----7-----7--5--------5--4-------|
F#|--7-----7-----7-----7-----7--5--------5--4-------|
 B|--7-----7-----7-----7-----7--5--------5--4-------|

   GTR I
c#|--------0-----------0-----------5-----------5----|
G#|--------------3-----------------------8----------|
 E|-------------------------------------------------|
 B|--2----------------------------------------------|
F#|--------------------------7----------------------|
 B|-------------------------------------------------|
  |
  |GTR II
c#|-------------------------------------------------|
G#|-------------------------------------------------|
 E|-------------------------------------------------|
 B|--2-----2-----2-----2-----0-----0-----0-----0----|
F#|--2-----2-----2-----2-----0-----0-----0-----0----|
 B|--2-----2-----2-----2-----0-----0-----0-----0----|

   GTR I
c#|--------0-----------0-----------0-----------0----|
G#|--------------3-----------------------3----------|
 E|-------------------------------------------------|
 B|--2-----------------------2----------------------|
F#|-------------------------------------------------|
 B|-------------------------------------------------|
  |
  |GTR II
c#|-------------------------------------------------|
G#|-------------------------------------------------|
 E|-------------------------------------------------|
 B|--7-----7-----7-----7--------0--0--0-----0--0--0-|
F#|--7-----7-----7-----7--------0--0--0-----0--0--0-|
 B|--7-----7-----7-----7--------0--0--0-----0--0--0-|

   GTR I
c#|--------0-----------0-----------5-----------5----|
G#|--------------3-----------------------8----------|
 E|-------------------------------------------------|
 B|--2----------------------------------------------|
F#|--------------------------7----------------------|
 B|-------------------------------------------------|
  |
  |GTR II
c#|-------------------------------------------------|
G#|-------------------------------------------------|
 E|-------------------------------------------------|
 B|--2-----2-----2-----2-----0-----0-----0-----0----|
F#|--2-----2-----2-----2-----0-----0-----0-----0----|
 B|--2-----2-----2-----2-----0-----0-----0-----0----|

   GTR I
c#|--------0-----------0-----------0-----------0----|
G#|--------------3-----------------------3----------|
 E|-------------------------------------------------|
 B|--2-----------------------2----------------------|
F#|-------------------------------------------------|
 B|-------------------------------------------------|
  |
  |GTR II
c#|-------------------------------------------------|
G#|-------------------------------------------------|
 E|-------------------------------------------------|
 B|--7-----7-----7-----7-----7--5--------5--4-------|
F#|--7-----7-----7-----7-----7--5--------5--4-------|
 B|--7-----7-----7-----7-----7--5--------5--4-------|

   GTR I
c#|--------0-----------0-----------5-----------5----|
G#|--------------3-----------------------8----------|
 E|-------------------------------------------------|
 B|--2----------------------------------------------|
F#|--------------------------7----------------------|
 B|-------------------------------------------------|
  |
  |GTR II
c#|-------------------------------------------------|
G#|-------------------------------------------------|
 E|-------------------------------------------------|
 B|--2-----2-----2-----2-----0-----0-----0-----0----|
F#|--2-----2-----2-----2-----0-----0-----0-----0----|
 B|--2-----2-----2-----2-----0-----0-----0-----0----|

   GTR I
c#|--------0-----------0-----0----------------------|
G#|--------------3----------------------------------|
 E|-------------------------------------------------|
 B|--2----------------------------------------------|
F#|-------------------------------------------------|
 B|-------------------------------------------------|
  |
  |GTR II
c#|-------------------------------------------------|
G#|-------------------------------------------------|
 E|-------------------------------------------------|
 B|--7-----7-----7-----7-----7\---------------------|
F#|--7-----7-----7-----7-----7\---------------------|
 B|--7-----7-----7-----7-----7\---------------------|

Verse

   GTR I,II
c#|--------------------------0----------------------|
G#|--------------------------------------3----------|
 E|-------------------------------------------------|
 B|--2----------------------------------------------|
F#|--2----------------------------------------------|
 B|--2----------------------------------------------|

   GTR I,II
c#|--------------------------0-----------------0----|
G#|-----------------------------------8-------------|
 E|-------------------------------------------------|
 B|--7----------------------------------------------|
F#|--7----------------------------------------------|
 B|--7----------------------------------------------|

   GTR I,II
c#|--------------------------0----------------------|
G#|--------------------------------------3----------|
 E|-------------------------------------------------|
 B|--2----------------------------------------------|
F#|--2----------------------------------------------|
 B|--2----------------------------------------------|

   GTR I,II
c#|--------------------------0----------------------|
G#|-----------------------------------8-------------|
 E|-------------------------------------------------|
 B|--7----------------------------------------------|
F#|--7----------------------------------------------|
 B|--7--------------------------------------0-------|

   GTR I,II
c#|--------------------------0----------------------|
G#|--------------------------------------3----------|
 E|-------------------------------------------------|
 B|--2----------------------------------------------|
F#|--2----------------------------------------------|
 B|--2----------------------------------------------|
  |
  |GTR III
c#|--------------------------0----------------------|
G#|--------------------------------------3----------|
 E|-------------------------------------------------|
 B|-------------------------------------------------|
F#|-------------------------------------------------|
 B|-------------------------------------------------|

   GTR I,II
c#|--------------------------0-----------------0----|
G#|-----------------------------------8-------------|
 E|-------------------------------------------------|
 B|--7----------------------------------------------|
F#|--7----------------------------------------------|
 B|--7----------------------------------------------|
  |
  |GTR III
c#|--------------------------0-----------------0----|
G#|-----------------------------------8-------------|
 E|-------------------------------------------------|
 B|-------------------------------------------------|
F#|-------------------------------------------------|
 B|-------------------------------------------------|

   GTR I,II
c#|--------------------------0----------------------|
G#|--------------------------------------3----------|
 E|-------------------------------------------------|
 B|--2----------------------------------------------|
F#|--2----------------------------------------------|
 B|--2----------------------------------------------|
  |
  |GTR III
c#|--------------------------0----------------------|
G#|--------------------------------------3----------|
 E|-------------------------------------------------|
 B|-------------------------------------------------|
F#|-------------------------------------------------|
 B|-------------------------------------------------|

   GTR I
c#|-------------------------------------------------|
G#|-------------------------------------------------|
 E|-------------------------------------------------|
 B|--7----------------------------------------------|
F#|--7----------------------------------------------|
 B|--7----------------------------------------------|
  |
  |GTR II
c#|-------------------------------------------------|
G#|-------------------------------------------------|
 E|-------------------------------------------------|
 B|--7\---------------------------------------------|
F#|--7\----------------------Pickslide--------------|
 B|--7\----------------------Pickslide--------------|

Chorus

   GTR I
c#|--------0-----------0-----------5-----------5----|
G#|--------------3-----------------------8----------|
 E|-------------------------------------------------|
 B|--2----------------------------------------------|
F#|--------------------------7----------------------|
 B|-------------------------------------------------|
  |
  |GTR II
c#|-------------------------------------------------|
G#|-------------------------------------------------|
 E|-------------------------------------------------|
 B|--2-----2-----2-----2-----0-----0-----0-----0----|
F#|--2-----2-----2-----2-----0-----0-----0-----0----|
 B|--2-----2-----2-----2-----0-----0-----0-----0----|

   GTR I
c#|--------0-----------0-----------0-----------0----|
G#|--------------3-----------------------3----------|
 E|-------------------------------------------------|
 B|--2-----------------------2----------------------|
F#|-------------------------------------------------|
 B|-------------------------------------------------|
  |
  |GTR II
c#|-------------------------------------------------|
G#|-------------------------------------------------|
 E|-------------------------------------------------|
 B|--7-----7-----7-----7-----7--5--------5--4-------|
F#|--7-----7-----7-----7-----7--5--------5--4-------|
 B|--7-----7-----7-----7-----7--5--------5--4-------|

   GTR I
c#|--------0-----------0-----------5-----------5----|
G#|--------------3-----------------------8----------|
 E|-------------------------------------------------|
 B|--2----------------------------------------------|
F#|--------------------------7----------------------|
 B|-------------------------------------------------|
  |
  |GTR II
c#|-------------------------------------------------|
G#|-------------------------------------------------|
 E|-------------------------------------------------|
 B|--2-----2-----2-----2-----0-----0-----0-----0----|
F#|--2-----2-----2-----2-----0-----0-----0-----0----|
 B|--2-----2-----2-----2-----0-----0-----0-----0----|

   GTR I
c#|--------0-----------0-----------0-----------0----|
G#|--------------3-----------------------3----------|
 E|-------------------------------------------------|
 B|--2-----------------------2----------------------|
F#|-------------------------------------------------|
 B|-------------------------------------------------|
  |
  |GTR II
c#|-------------------------------------------------|
G#|-------------------------------------------------|
 E|-------------------------------------------------|
 B|--7-----7-----7-----7--------0--0--0-----0--0--0-|
F#|--7-----7-----7-----7--------0--0--0-----0--0--0-|
 B|--7-----7-----7-----7--------0--0--0-----0--0--0-|

   GTR I
c#|--------0-----------0-----------5-----------5----|
G#|--------------3-----------------------8----------|
 E|-------------------------------------------------|
 B|--2----------------------------------------------|
F#|--------------------------7----------------------|
 B|-------------------------------------------------|
  |
  |GTR II
c#|-------------------------------------------------|
G#|-------------------------------------------------|
 E|-------------------------------------------------|
 B|--2-----2-----2-----2-----0-----0-----0-----0----|
F#|--2-----2-----2-----2-----0-----0-----0-----0----|
 B|--2-----2-----2-----2-----0-----0-----0-----0----|

   GTR I
c#|--------0-----------0-----------0-----------0----|
G#|--------------3-----------------------3----------|
 E|-------------------------------------------------|
 B|--2-----------------------2----------------------|
F#|-------------------------------------------------|
 B|-------------------------------------------------|
  |
  |GTR II
c#|-------------------------------------------------|
G#|-------------------------------------------------|
 E|-------------------------------------------------|
 B|--7-----7-----7-----7-----7--5--------5--4-------|
F#|--7-----7-----7-----7-----7--5--------5--4-------|
 B|--7-----7-----7-----7-----7--5--------5--4-------|

   GTR I
c#|--------0-----------0-----------5-----------5----|
G#|--------------3-----------------------8----------|
 E|-------------------------------------------------|
 B|--2----------------------------------------------|
F#|--------------------------7----------------------|
 B|-------------------------------------------------|
  |
  |GTR II
c#|-------------------------------------------------|
G#|-------------------------------------------------|
 E|-------------------------------------------------|
 B|--2-----2-----2-----2-----0-----0-----0-----0----|
F#|--2-----2-----2-----2-----0-----0-----0-----0----|
 B|--2-----2-----2-----2-----0-----0-----0-----0----|

   GTR I
c#|--------0-----------0-----0----------------------|
G#|--------------3----------------------------------|
 E|-------------------------------------------------|
 B|--2----------------------------------------------|
F#|-------------------------------------------------|
 B|-------------------------------------------------|
  |
  |GTR II
c#|-------------------------------------------------|
G#|-------------------------------------------------|
 E|-------------------------------------------------|
 B|--7-----7-----7-----7-----7----------------------|
F#|--7-----7-----7-----7-----7----------------------|
 B|--7-----7-----7-----7-----7----------------------|

Bridge

   GTR I
c#|-------------------------------------------------|
G#|-------------------------------------------------|
 E|-------------------------------------------------|
 B|--0--2--2--0--2--2--0--2--2--0--2--2--0--2--2--0-|
F#|--0--2--2--0--2--2--0--2--2--0--2--2--0--2--2--0-|
 B|--0--2--2--0--2--2--0--2--2--0--2--2--0--2--2--0-|
  |
  |GTR II
c#|-------------------------------------------------|
G#|-------------------------------------------------|
 E|-------------------------------------------------|
 B|-------------------------------------------------|
F#|--5--7--7--5--7--7--5--7--7--5--7--7--5--7--7--5-|
 B|-------------------------------------------------|

   GTR I
c#|-------------------------------------------------|
G#|-------------------------------------------------|
 E|-------------------------------------------------|
 B|--7--7--7--8--7--5\------------------------------|
F#|--7--7--7--8--7--5\------------------------------|
 B|--7--7--7--8--7--5\------------------------------|
  |
  |GTR II
c#|-------------------------------------------------|
G#|-------------------------------------------------|
 E|-------------------------------------------------|
 B|-------------------------------------------------|
F#|--7br7--5----------------------------------------|
 B|-----------8--7--5~------------------------------|

   GTR I
c#|-------------------------------------------------|
G#|-------------------------------------------------|
 E|-------------------------------------------------|
 B|--0--2--2--0--2--2--0--2--2--0--2--2--0--2--2--0-|
F#|--0--2--2--0--2--2--0--2--2--0--2--2--0--2--2--0-|
 B|--0--2--2--0--2--2--0--2--2--0--2--2--0--2--2--0-|
  |
  |GTR II
c#|-------------------------------------------------|
G#|-------------------------------------------------|
 E|-------------------------------------------------|
 B|-------------------------------------------------|
F#|--5--7--7--5--7--7--5--7--7--5--7--7--5--7--7--5-|
 B|-------------------------------------------------|

   GTR I
c#|-------------------------------------------------|
G#|-------------------------------------------------|
 E|-------------------------------------------------|
 B|--7--7--7--8--7--5\------------------------------|
F#|--7--7--7--8--7--5\------------------------------|
 B|--7--7--7--8--7--5\------------------------------|
  |
  |GTR II
c#|-------------------------------------------------|
G#|-------------------------------------------------|
 E|-------------------------------------------------|
 B|-------------------------------------------------|
F#|--7br7--5----------------------------------------|
 B|-----------8--7--5~------------------------------|

   GTR I
c#|-------------------------------------------------|
G#|-------------------------------------------------|
 E|-------------------------------------------------|
 B|--0--2--2--0--2--2--0--2--2--0--2--2--0--2--2--0-|
F#|--0--2--2--0--2--2--0--2--2--0--2--2--0--2--2--0-|
 B|--0--2--2--0--2--2--0--2--2--0--2--2--0--2--2--0-|
  |
  |GTR II
c#|-------------------------------------------------|
G#|-------------------------------------------------|
 E|-------------------------------------------------|
 B|-------------------------------------------------|
F#|--5--7--7--5--7--7--5--7--7--5--7--7--5--7--7--5-|
 B|-------------------------------------------------|

   GTR I
c#|-------------------------------------------------|
G#|-------------------------------------------------|
 E|-------------------------------------------------|
 B|--7--7--7--8--7--5\------------------------------|
F#|--7--7--7--8--7--5\------------------------------|
 B|--7--7--7--8--7--5\------------------------------|
  |
  |GTR II
c#|-------------------------------------------------|
G#|-------------------------------------------------|
 E|-------------------------------------------------|
 B|-------------------------------------------------|
F#|--7br7--5----------------------------------------|
 B|-----------8--7--5~------------------------------|

   GTR I
c#|-------------------------------------------------|
G#|-------------------------------------------------|
 E|-------------------------------------------------|
 B|--0--2--2--0--2--2--0--2--2--0--2--2--0--2--2--0-|
F#|--0--2--2--0--2--2--0--2--2--0--2--2--0--2--2--0-|
 B|--0--2--2--0--2--2--0--2--2--0--2--2--0--2--2--0-|
  |
  |GTR II
c#|-------------------------------------------------|
G#|-------------------------------------------------|
 E|-------------------------------------------------|
 B|-------------------------------------------------|
F#|--5--7--7--5--7--7--5--7--7--5--7--7--5--7--7--5-|
 B|-------------------------------------------------|

   GTR I
c#|-------------------------------------------------|
G#|-------------------------------------------------|
 E|-------------------------------------------------|
 B|--------------------------------------7--7--7--7-|
F#|--7--7--7--7--7--7--7--7--7--7--7--7--7--7--7--7-|
 B|--7--7--7--7--7--7--7--7--7--7--7--7--7--7--7--7-|
  |  .  .  .  .  .  .  .  .  .  .  .  .  
  |GTR II
c#|-------------------------------------------------|
G#|-------------------------------------------------|
 E|-------------------------------------------------|
 B|--------5--7--7br7--5-----------5--7--7br7--5----|
F#|--5--7-----------------7--5--7-----------------7-|
 B|-------------------------------------------------|

Guitar Solo

   GTR I
c#|-------------------------------------------------|
G#|-------------------------------------------------|
 E|-2brp0-----2brp0-----2brp0------2brp0----0-------|
 B|------2p0-------2p0--------2p0--------2p0---2--2-|
F#|-------------------------------------------------|
 B|-------------------------------------------------|
  |
  |GTR II
c#|-------------------------------------------------|
G#|-------------------------------------------------|
 E|-------------------------------------------------|
 B|--2--2--2--2--2--2--2--2--2--2--2--2--2--2--2--2-|
F#|--2--2--2--2--2--2--2--2--2--2--2--2--2--2--2--2-|
 B|--2--2--2--2--2--2--2--2--2--2--2--2--2--2--2--2-|

   GTR I
c#|--------0----------------------------------------|
G#|-------------------------------------------------|
 E|--2/-3--------------9-12--9--9-------11~---------|
 B|----------------12-------------12--9-------------|
F#|-------------------------------------------------|
 B|-------------------------------------------------|
  |
  |GTR II
c#|-------------------------------------------------|
G#|-------------------------------------------------|
 E|-------------------------------------------------|
 B|--7--7--7--7--7--7--7--7--7--7--7--7--7--7--7--7-|
F#|--7--7--7--7--7--7--7--7--7--7--7--7--7--7--7--7-|
 B|--7--7--7--7--7--7--7--7--7--7--7--7--7--7--7--7-|

   GTR I
c#|-------------------------------------------------|
G#|-------------------------------------------------|
 E|----------------------12-------12-14br14p12------|
 B|----12----14----12-14----14-12-------------14p12-|
F#|-14----14----------------------------------------|
 B|-------------------------------------------------|
  |  .     .        .  .     
  |GTR II
c#|-------------------------------------------------|
G#|-------------------------------------------------|
 E|-------------------------------------------------|
 B|--2--2--2--2--2--2--2--2--2--2--2--2--2--2--2--2-|
F#|--2--2--2--2--2--2--2--2--2--2--2--2--2--2--2--2-|
 B|--2--2--2--2--2--2--2--2--2--2--2--2--2--2--2--2-|

   GTR I
c#|-------------------------------------------------|
G#|-------------------------------15b---------------|
 E|14br14p12-----14br14p12--------------------------|
 B|---------14p12---------14p12---------------------|
F#|-------------------------------------------------|
 B|-------------------------------------------------|
  |
  |GTR II
c#|-------------------------------------------------|
G#|-------------------------------------------------|
 E|-------------------------------------------------|
 B|--7--7--7--7--7--7--7--7--------------7--7--7--7-|
F#|--7--7--7--7--7--7--7--7--7--7--7--7--7--7--7--7-|
 B|--7--7--7--7--7--7--7--7--7--7--7--7--7--7--7--7-|
                             .  .  .  .   

Break

   GTR III
c#|-------------------------------------------------|
G#|-------------------------------------------------|
 E|-------------------------------------------------|
 B|--5-----------------------7----------------------|
F#|--5-----------------------7----------------------|
 B|--5-----------------------7----------------------|

   GTR III
c#|-------------------------------------------------|
G#|-------------------------------------------------|
 E|-------------------------------------------------|
 B|--5-----------------------7----------------------|
F#|--5-----------------------7----------------------|
 B|--5-----------------------7----------------------|

Chorus 2

   GTR I
c#|--------0-----------0-----------5-----------5----|
G#|--------------3-----------------------8----------|
 E|-------------------------------------------------|
 B|--2----------------------------------------------|
F#|--------------------------7----------------------|
 B|-------------------------------------------------|
  |
  |GTR II
c#|-------------------------------------------------|
G#|-------------------------------------------------|
 E|-------------------------------------------------|
 B|--2-----2-----2-----2-----0-----0-----0-----0----|
F#|--2-----2-----2-----2-----0-----0-----0-----0----|
 B|--2-----2-----2-----2-----0-----0-----0-----0----|

   GTR I
c#|--------0-----------0-----------0-----------0----|
G#|--------------3-----------------------3----------|
 E|-------------------------------------------------|
 B|--2-----------------------2----------------------|
F#|-------------------------------------------------|
 B|-------------------------------------------------|
  |
  |GTR II
c#|-------------------------------------------------|
G#|-------------------------------------------------|
 E|-------------------------------------------------|
 B|--7-----7-----7-----7-----7--5--------5--4-------|
F#|--7-----7-----7-----7-----7--5--------5--4-------|
 B|--7-----7-----7-----7-----7--5--------5--4-------|

   GTR I
c#|--------0-----------0-----------5-----------5----|
G#|--------------3-----------------------8----------|
 E|-------------------------------------------------|
 B|--2----------------------------------------------|
F#|--------------------------7----------------------|
 B|-------------------------------------------------|
  |
  |GTR II
c#|-------------------------------------------------|
G#|-------------------------------------------------|
 E|-------------------------------------------------|
 B|--2-----2-----2-----2-----0-----0-----0-----0----|
F#|--2-----2-----2-----2-----0-----0-----0-----0----|
 B|--2-----2-----2-----2-----0-----0-----0-----0----|

   GTR I
c#|--------0-----------0-----0----------------------|
G#|--------------3--------------3--0----------------|
 E|-----------------------------------3--2--0-------|
 B|--2-----------------------------------------2--0-|
F#|-------------------------------------------------|
 B|-------------------------------------------------|
  |
  |GTR II
c#|-------------------------------------------------|
G#|-------------------------------------------------|
 E|-------------------------------------------------|
 B|--7-----7-----7-----7----------------------------|
F#|--7-----7-----7-----7----------------------------|
 B|--7-----7-----7-----7----------------------------|

   GTR I
c#|--------0-----------0-----------5-----------5----|
G#|--------------3-----------------------8----------|
 E|-------------------------------------------------|
 B|--2----------------------------------------------|
F#|--------------------------7----------------------|
 B|-------------------------------------------------|
  |
  |GTR II
c#|-------------------------------------------------|
G#|-------------------------------------------------|
 E|-------------------------------------------------|
 B|--2-----2-----2-----2-----0-----0-----0-----0----|
F#|--2-----2-----2-----2-----0-----0-----0-----0----|
 B|--2-----2-----2-----2-----0-----0-----0-----0----|

   GTR I
c#|--------0-----------0-----------0-----------0----|
G#|--------------3-----------------------3----------|
 E|-------------------------------------------------|
 B|--2-----------------------2----------------------|
F#|-------------------------------------------------|
 B|-------------------------------------------------|
  |
  |GTR II
c#|-------------------------------------------------|
G#|-------------------------------------------------|
 E|-------------------------------------------------|
 B|--7-----7-----7-----7-----7--5--------5--4-------|
F#|--7-----7-----7-----7-----7--5--------5--4-------|
 B|--7-----7-----7-----7-----7--5--------5--4-------|

   GTR I
c#|--------0-----------0-----------5-----------5----|
G#|--------------3-----------------------8----------|
 E|-------------------------------------------------|
 B|--2----------------------------------------------|
F#|--------------------------7----------------------|
 B|-------------------------------------------------|
  |
  |GTR II
c#|-------------------------------------------------|
G#|-------------------------------------------------|
 E|-------------------------------------------------|
 B|--2-----2-----2-----2-----0-----0-----0-----0----|
F#|--2-----2-----2-----2-----0-----0-----0-----0----|
 B|--2-----2-----2-----2-----0-----0-----0-----0----|

   GTR I
c#|--------0-----------0----------------------------|
G#|--------------3----------------------------------|
 E|-------------------------------------------------|
 B|--2----------------------------------------------|
F#|-------------------------------------------------|
 B|-------------------------------------------------|
  |
  |GTR II
c#|-------------------------------------------------|
G#|-------------------------------------------------|
 E|-------------------------------------------------|
 B|--7-----7-----7-----7-----7--7-----7--7--7--7--7-|
F#|--7-----7-----7-----7-----7--7-----7--7--7--7--7-|
 B|--7-----7-----7-----7-----7--7-----7--7--7--7--7-|

Outro

   GTR I
c#|--------0-----------0-----------5-----------5----|
G#|--------------3-----------------------8----------|
 E|-------------------------------------------------|
 B|--2----------------------------------------------|
F#|--------------------------7----------------------|
 B|-------------------------------------------------|
  |
  |GTR II
c#|-------------------------------------------------|
G#|-------------------------------------------------|
 E|-------------------------------------------------|
 B|-------------------------------------------------|
F#|--5--7--7--5--7--7--5--7--7--5--7--7--5--7--7--5-|
 B|-------------------------------------------------|
  |
  |GTR IV
c#|-------------------------------------------------|
G#|-------------------------------------------------|
 E|-------------------------------------------------|
 B|--0--2--2--0--2--2--0--2--2--0--2--2--0--2--2--0-|
F#|--0--2--2--0--2--2--0--2--2--0--2--2--0--2--2--0-|
 B|--0--2--2--0--2--2--0--2--2--0--2--2--0--2--2--0-|


   GTR I
c#|--------0-----------0-----------0-----------0----|
G#|--------------3-----------------------3----------|
 E|-------------------------------------------------|
 B|--2-----------------------2----------------------|
F#|-------------------------------------------------|
 B|-------------------------------------------------|
  |
  |GTR II
c#|-------------------------------------------------|
G#|-------------------------------------------------|
 E|-------------------------------------------------|
 B|--5br------5br------5br--------------------------|
F#|--------------------------------------0----------|
 B|-----------------------------0--3--5-----2~------|
  |
  |GTR IV
c#|-------------------------------------------------|
G#|-------------------------------------------------|
 E|-------------------------------------------------|
 B|--7--7--7--7--7--7--7--7--7--7--7--8--7--5--5--5-|
F#|--7--7--7--7--7--7--7--7--7--7--7--8--7--5--5--5-|
 B|--7--7--7--7--7--7--7--7--7--7--7--8--7--5--5--5-|

   GTR I
c#|--------0-----------0-----------5-----------5----|
G#|--------------3-----------------------8----------|
 E|-------------------------------------------------|
 B|--2----------------------------------------------|
F#|--------------------------7----------------------|
 B|-------------------------------------------------|
  |
  |GTR II
c#|-------------------------------------------------|
G#|-------------------------------------------------|
 E|-------------------------------------------------|
 B|-------------------------------------------------|
F#|--5--7--7--5--7--7--5--7--7--5--7--7--5--7--7--5-|
 B|-------------------------------------------------|
  |
  |GTR IV
c#|-------------------------------------------------|
G#|-------------------------------------------------|
 E|-------------------------------------------------|
 B|--0--2--2--0--2--2--0--2--2--0--2--2--0--2--2--0-|
F#|--0--2--2--0--2--2--0--2--2--0--2--2--0--2--2--0-|
 B|--0--2--2--0--2--2--0--2--2--0--2--2--0--2--2--0-|


   GTR I
c#|--------0-----------0----------------------------|
G#|--------------3----------------------------------|
 E|-------------------------------------------------|
 B|--2-----------------------2----------------------|
F#|-------------------------------------------------|
 B|-------------------------------------------------|
  |
  |GTR II
c#|-------------------------------------------------|
G#|-------------------------------------------------|
 E|-------------------------------------------------|
 B|-------------------------------------------------|
F#|--7br7--5----------------------------------------|
 B|-----------8--7--5--7--8--7~---------------------|
  |
  |GTR IV
c#|-------------------------------------------------|
G#|-------------------------------------------------|
 E|-------------------------------------------------|
 B|--7--7--7--5--7--8--7--5--7\---------------------|
F#|--7--7--7--5--7--8--7--5--7\---------------------|
 B|--7--7--7--5--7--8--7--5--7\---------------------|

END

------------------------------------------------------------------------------
3. Make Up Your Mind
   Words & Music by Tyler Connolly and Chad Kroeger
------------------------------------------------------------------------------

GTR I - Drop B Tuning "Tyler Connolly" Electric (c#,G#,E,B,F#,B)
GTR II - Drop B Tuning "Dave Brenner" Electric (c#,G#,E,B,F#,B)
GTR III - Drop B Tuning "Tyler Connolly" Acoustic (c#,G#,E,B,F#,B)

Verse

   GTR I
c#|-----------------------5--------------5----------|
G#|-----------------------5--------------5----------|
 E|--7-----------7--------7--------------7----------|
 B|--7-----------7--------7--------------7----------|
F#|--5-----------5--------5--------------5----------|
 B|-------------------------------------------------|

   GTR I
c#|-----------------------3--------------3----------|
G#|-----------------------3--------------3----------|
 E|--7-----------7--------7--------------7----------|
 B|--5-----------5--------5--------------5----------|
F#|--3-----------3--------3--------------3----------|
 B|-------------------------------------------------|

   GTR I
c#|-------------------------------------------------|
G#|-------------------------------------------------|
 E|--7-----------7--------7--------------7----------|
 B|--7-----------7--------7--------------7----------|
F#|--5-----------5--------5--------------5----------|
 B|--5-----------5--------5--------------5----------|

   GTR I
c#|-------------------------------------------------|
G#|-------------------------------------------------|
 E|--7-----------7--------5--------------7----------|
 B|--5-----------5--------3--------------5----------|
F#|--3-----------3--------3--------------5----------|
 B|-----------------------3--------------5----------|

   GTR I
c#|-----------------------5--------------5----------|
G#|-----------------------5--------------5----------|
 E|--7-----------7--------7--------------7----------|
 B|--7-----------7--------7--------------7----------|
F#|--5-----------5--------5--------------5----------|
 B|-------------------------------------------------|

   GTR I
c#|-----------------------3--------------3----------|
G#|-----------------------3--------------3----------|
 E|--7-----------7--------7--------------7----------|
 B|--5-----------5--------5--------------5----------|
F#|--3-----------3--------3--------------3----------|
 B|-------------------------------------------------|

   GTR I
c#|-------------------------------------------------|
G#|-------------------------------------------------|
 E|--7-----------7--------7--------------7----------|
 B|--7-----------7--------7--------------7----------|
F#|--5-----------5--------5--------------5----------|
 B|--5-----------5--------5--------------5----------|

   GTR I
c#|-------------------------------------------------|
G#|-------------------------------------------------|
 E|--7----------------------------------------------|
 B|--5----------------------------------------------|
F#|--3----------------------------------------------|
 B|-------------------------------------------------|

Pre Chorus

   GTR I,II
c#|-------------------------------------------------|
G#|-------------------------------------------------|
 E|-------------------------------------------------|
 B|-------------------------------------------------|
F#|--3-----3-----3-----3-----3-----3-----3-----3----|
 B|--3-----3-----3-----3-----3-----3-----3-----3----|
     .     .     .     .     .     .     .     .

   GTR I,II
c#|-------------------------------------------------|
G#|-------------------------------------------------|
 E|-------------------------------------------------|
 B|-------------------------------------------------|
F#|--5-----5-----5-----5-----5----------------------|
 B|--5-----5-----5-----5-----5----------------------|
     .     .     .     .     .                  

Chorus

   GTR I
c#|-------------------------------------------------|
G#|-------------------------------------------------|
 E|--7-----7-----7-----7----10----10----10----10----|
 B|--7-----7-----7-----7----10----10----10----10----|
F#|--5-----5-----5-----5-----8-----8-----8-----8----|
 B|-------------------------------------------------|
  |
  |GTR II
c#|-------------------------------------------------|
G#|--3-----3-----3-----3----------------------------|
 E|--2-----2-----2-----2----------------------------|
 B|--0-----0-----0-----0-----3-----3-----3-----3----|
F#|--0-----0-----0-----0-----3-----3-----3-----3----|
 B|--0-----0-----0-----0-----3-----3-----3-----3----|

   GTR I
c#|-------------------------------------------------|
G#|-------------------------------------------------|
 E|-12----12----12----12----12----12----12----12----|
 B|-12----12----12----12----12----12----12----12----|
F#|-10----10----10----10----10----10----10----10----|
 B|-------------------------------------------------|
  |
  |GTR II
c#|-------------------------------------------------|
G#|-------------------------------------------------|
 E|-------------------------------------------------|
 B|--5-----5-----5-----5-----5-----5-----5-----5----|
F#|--5-----5-----5-----5-----5-----5-----5-----5----|
 B|--5-----5-----5-----5-----5-----5-----5-----5----|

   GTR I
c#|-------------------------------------------------|
G#|-------------------------------------------------|
 E|--7-----7-----7-----7----10----10----10----10----|
 B|--7-----7-----7-----7----10----10----10----10----|
F#|--5-----5-----5-----5-----8-----8-----8-----8----|
 B|-------------------------------------------------|
  |
  |GTR II
c#|-------------------------------------------------|
G#|--3-----3-----3-----3----------------------------|
 E|--2-----2-----2-----2----------------------------|
 B|--0-----0-----0-----0-----3-----3-----3-----3----|
F#|--0-----0-----0-----0-----3-----3-----3-----3----|
 B|--0-----0-----0-----0-----3-----3-----3-----3----|

   GTR I
c#|-------------------------------------------------|
G#|-------------------------------------------------|
 E|-12----12----12----12----12----12----12----12----|
 B|-12----12----12----12----12----12----12----12----|
F#|-10----10----10----10----10----10----10----10----|
 B|-------------------------------------------------|
  |
  |GTR II
c#|-------------------------------------------------|
G#|-------------------------------------------------|
 E|-------------------------------------------------|
 B|--5-----5-----5-----5-----5-----5-----5-----5----|
F#|--5-----5-----5-----5-----5-----5-----5-----5----|
 B|--5-----5-----5-----5-----5-----5-----5-----5----|

   GTR I
c#|-------------------------------------------------|
G#|-------------------------------------------------|
 E|--7-----7-----7-----7-----9-----9-----9-----9----|
 B|--7-----7-----7-----7-----9-----9-----9-----9----|
F#|--5-----5-----5-----5-----7-----7-----7-----7----|
 B|-------------------------------------------------|
  |
  |GTR II
c#|-------------------------------------------------|
G#|--3-----3-----3-----3----------------------------|
 E|--2-----2-----2-----2----------------------------|
 B|--0-----0-----0-----0-----2-----2-----2-----2----|
F#|--0-----0-----0-----0-----2-----2-----2-----2----|
 B|--0-----0-----0-----0-----2-----2-----2-----2----|

   GTR I
c#|-------------------------------------------------|
G#|-------------------------------------------------|
 E|-10----10----10----10----12----12----12----12----|
 B|-10----10----10----10----12----12----12----12----|
F#|--8-----8-----8-----8----10----10----10----10----|
 B|-------------------------------------------------|
  |
  |GTR II
c#|-------------------------------------------------|
G#|-------------------------------------------------|
 E|-------------------------------------------------|
 B|--3-----3-----3-----3-----5-----5-----5-----5----|
F#|--3-----3-----3-----3-----5-----5-----5-----5----|
 B|--3-----3-----3-----3-----5-----5-----5-----5----|

   GTR I
c#|-------------------------------------------------|
G#|-------------------------------------------------|
 E|--7-----7-----7-----7----10----10----10----10----|
 B|--7-----7-----7-----7----10----10----10----10----|
F#|--5-----5-----5-----5-----8-----8-----8-----8----|
 B|-------------------------------------------------|
  |
  |GTR II
c#|-------------------------------------------------|
G#|--3-----3-----3-----3----------------------------|
 E|--2-----2-----2-----2----------------------------|
 B|--0-----0-----0-----0-----3-----3-----3-----3----|
F#|--0-----0-----0-----0-----3-----3-----3-----3----|
 B|--0-----0-----0-----0-----3-----3-----3-----3----|

Post Chorus

   GTR I
c#|-------------|-------------|-------------|
G#|-------------|-------------|-------------|
 E|-12----------|-10----------|-12----------|
 B|-12----------|-10----------|-12----------|
F#|-10----------|--8----------|-10----------|
 B|-------------|-------------|-------------|
  |
  |GTR II
c#|-------------|-------------|-------------|
G#|-------------|-------------|-------------|
 E|-------------|-------------|-------------|
 B|--5----------|--3----------|--5----------|
F#|--5----------|--3----------|--5----------|
 B|--5----------|--3----------|--5----------|

Verse 2

   GTR I,III
c#|-----------------------5--------------5-----5--5-|
G#|-----------------------5--------------5-----5--5-|
 E|--7-----------7--7-----7-----7--7-----7-----7--7-|
 B|--7-----------7--7-----7-----7--7-----7-----7--7-|
F#|--5-----------5--5-----5-----5--5-----5-----5--5-|
 B|-------------------------------------------------|

   GTR I,III
c#|-----------------------3--------------3-----3--3-|
G#|-----------------------3--------------3-----3--3-|
 E|--7-----------7--7-----7-----7--7-----7-----7--7-|
 B|--5-----------5--5-----5-----5--5-----5-----5--5-|
F#|--3-----------3--3-----3-----3--3-----3-----3--3-|
 B|-------------------------------------------------|

   GTR I,III
c#|-------------------------------------------------|
G#|-------------------------------------------------|
 E|--7-----------7--7-----7-----7--7-----7-----7--7-|
 B|--7-----------7--7-----7-----7--7-----7-----7--7-|
F#|--5-----------5--5-----5-----5--5-----5-----5--5-|
 B|--5-----------5--5-----5-----5--5-----5-----5--5-|

   GTR I,III
c#|-------------------------------------------------|
G#|-------------------------------------------------|
 E|--7-----------7-----7--7--5-----5-----7-----7----|
 B|--5-----------5-----5--5--3-----3-----5-----5----|
F#|--3-----------3-----3--3--3-----3-----5-----5----|
 B|--------------------------3-----3-----5-----5----|

   GTR I,III
c#|-----------------------5--------------5-----5--5-|
G#|-----------------------5--------------5-----5--5-|
 E|--7-----------7--7-----7-----7--7-----7-----7--7-|
 B|--7-----------7--7-----7-----7--7-----7-----7--7-|
F#|--5-----------5--5-----5-----5--5-----5-----5--5-|
 B|-------------------------------------------------|

   GTR I,III
c#|-----------------------3--------------3-----3--3-|
G#|-----------------------3--------------3-----3--3-|
 E|--7-----------7--7-----7-----7--7-----7-----7--7-|
 B|--5-----------5--5-----5-----5--5-----5-----5--5-|
F#|--3-----------3--3-----3-----3--3-----3-----3--3-|
 B|-------------------------------------------------|

   GTR I,III
c#|-------------------------------------------------|
G#|-------------------------------------------------|
 E|--7-----------7--7-----7-----7--7-----7-----7--7-|
 B|--7-----------7--7-----7-----7--7-----7-----7--7-|
F#|--5-----------5--5-----5-----5--5-----5-----5--5-|
 B|--5-----------5--5-----5-----5--5-----5-----5--5-|

   GTR I,III
c#|-------------------------------------------------|
G#|-------------------------------------------------|
 E|--7----------------------------------------------|
 B|--5----------------------------------------------|
F#|--3----------------------------------------------|
 B|-------------------------------------------------|

Pre Chorus

   GTR I,II
c#|-------------------------------------------------|
G#|-------------------------------------------------|
 E|-------------------------------------------------|
 B|-------------------------------------------------|
F#|--3-----3-----3-----3-----3-----3-----3-----3----|
 B|--3-----3-----3-----3-----3-----3-----3-----3----|
     .     .     .     .     .     .     .     .

   GTR I,II
c#|-------------------------------------------------|
G#|-------------------------------------------------|
 E|-------------------------------------------------|
 B|-------------------------------------------------|
F#|--5-----5-----5-----5-----5----------------------|
 B|--5-----5-----5-----5-----5----------------------|
     .     .     .     .     .                  

Chorus 2

   GTR I
c#|-------------------------------------------------|
G#|-------------------------------------------------|
 E|--7-----7-----7-----7----10----10----10----10----|
 B|--7-----7-----7-----7----10----10----10----10----|
F#|--5-----5-----5-----5-----8-----8-----8-----8----|
 B|-------------------------------------------------|
  |
  |GTR II
c#|-------------------------------------------------|
G#|--3-----3-----3-----3----------------------------|
 E|--2-----2-----2-----2----------------------------|
 B|--0-----0-----0-----0-----3-----3-----3-----3----|
F#|--0-----0-----0-----0-----3-----3-----3-----3----|
 B|--0-----0-----0-----0-----3-----3-----3-----3----|

   GTR I
c#|-------------------------------------------------|
G#|-------------------------------------------------|
 E|-12----12----12----12----12----12----12----12----|
 B|-12----12----12----12----12----12----12----12----|
F#|-10----10----10----10----10----10----10----10----|
 B|-------------------------------------------------|
  |
  |GTR II
c#|-------------------------------------------------|
G#|-------------------------------------------------|
 E|-------------------------------------------------|
 B|--5-----5-----5-----5-----5-----5-----5-----5----|
F#|--5-----5-----5-----5-----5-----5-----5-----5----|
 B|--5-----5-----5-----5-----5-----5-----5-----5----|

   GTR I
c#|-------------------------------------------------|
G#|-------------------------------------------------|
 E|--7-----7-----7-----7----10----10----10----10----|
 B|--7-----7-----7-----7----10----10----10----10----|
F#|--5-----5-----5-----5-----8-----8-----8-----8----|
 B|-------------------------------------------------|
  |
  |GTR II
c#|-------------------------------------------------|
G#|--3-----3-----3-----3----------------------------|
 E|--2-----2-----2-----2----------------------------|
 B|--0-----0-----0-----0-----3-----3-----3-----3----|
F#|--0-----0-----0-----0-----3-----3-----3-----3----|
 B|--0-----0-----0-----0-----3-----3-----3-----3----|

   GTR I
c#|-------------------------------------------------|
G#|-------------------------------------------------|
 E|-12----12----12----12----12----12----12----12----|
 B|-12----12----12----12----12----12----12----12----|
F#|-10----10----10----10----10----10----10----10----|
 B|-------------------------------------------------|
  |
  |GTR II
c#|-------------------------------------------------|
G#|-------------------------------------------------|
 E|-------------------------------------------------|
 B|--5-----5-----5-----5-----5-----5-----5-----5----|
F#|--5-----5-----5-----5-----5-----5-----5-----5----|
 B|--5-----5-----5-----5-----5-----5-----5-----5----|

   GTR I
c#|-------------------------------------------------|
G#|-------------------------------------------------|
 E|--7-----7-----7-----7-----9-----9-----9-----9----|
 B|--7-----7-----7-----7-----9-----9-----9-----9----|
F#|--5-----5-----5-----5-----7-----7-----7-----7----|
 B|-------------------------------------------------|
  |
  |GTR II
c#|-------------------------------------------------|
G#|--3-----3-----3-----3----------------------------|
 E|--2-----2-----2-----2----------------------------|
 B|--0-----0-----0-----0-----2-----2-----2-----2----|
F#|--0-----0-----0-----0-----2-----2-----2-----2----|
 B|--0-----0-----0-----0-----2-----2-----2-----2----|

   GTR I
c#|-------------------------------------------------|
G#|-------------------------------------------------|
 E|-10----10----10----10----12----12----12----12----|
 B|-10----10----10----10----12----12----12----12----|
F#|--8-----8-----8-----8----10----10----10----10----|
 B|-------------------------------------------------|
  |
  |GTR II
c#|-------------------------------------------------|
G#|-------------------------------------------------|
 E|-------------------------------------------------|
 B|--3-----3-----3-----3-----5-----5-----5-----5----|
F#|--3-----3-----3-----3-----5-----5-----5-----5----|
 B|--3-----3-----3-----3-----5-----5-----5-----5----|

   GTR I
c#|-------------------------------------------------|
G#|-------------------------------------------------|
 E|--7-----7-----7-----7----10----10----10----10----|
 B|--7-----7-----7-----7----10----10----10----10----|
F#|--5-----5-----5-----5-----8-----8-----8-----8----|
 B|-------------------------------------------------|
  |
  |GTR II
c#|-------------------------------------------------|
G#|--3-----3-----3-----3----------------------------|
 E|--2-----2-----2-----2----------------------------|
 B|--0-----0-----0-----0-----3-----3-----3-----3----|
F#|--0-----0-----0-----0-----3-----3-----3-----3----|
 B|--0-----0-----0-----0-----3-----3-----3-----3----|

   GTR I
c#|-------------------------------------------------|
G#|-------------------------------------------------|
 E|-12----12----12----12----12----12----12----12----|
 B|-12----12----12----12----12----12----12----12----|
F#|-10----10----10----10----10----10----10----10----|
 B|-------------------------------------------------|
  |
  |GTR II
c#|-------------------------------------------------|
G#|-------------------------------------------------|
 E|-------------------------------------------------|
 B|--5-----5-----5-----5-----5-----5-----5-----5----|
F#|--5-----5-----5-----5-----5-----5-----5-----5----|
 B|--5-----5-----5-----5-----5-----5-----5-----5----|

Bridge

   GTR I,II
c#|-------------------------------------------------|
G#|-------------------------------------------------|
 E|-------------------------------------------------|
 B|--8-----8-----8-----8-----8-----8-----8-----8----|
F#|--8-----8-----8-----8-----8-----8-----8-----8----|
 B|--8-----8-----8-----8-----8-----8-----8-----8----|

   GTR I,II
c#|-------------------------------------------------|
G#|-------------------------------------------------|
 E|-------------------------------------------------|
 B|--3-----3-----3-----3-----3-----3-----3-----3----|
F#|--3-----3-----3-----3-----3-----3-----3-----3----|
 B|--3-----3-----3-----3-----3-----3-----3-----3----|

   GTR I,II
c#|-------------------------------------------------|
G#|-------------------------------------------------|
 E|-------------------------------------------------|
 B|--5-----5-----5-----5-----5-----5-----5-----5----|
F#|--5-----5-----5-----5-----5-----5-----5-----5----|
 B|--5-----5-----5-----5-----5-----5-----5-----5----|

   GTR I,II
c#|-------------------------------------------------|
G#|-------------------------------------------------|
 E|-------------------------------------------------|
 B|--5-----5-----5-----5-----5-----5-----5-----5----|
F#|--5-----5-----5-----5-----5-----5-----5-----5----|
 B|--5-----5-----5-----5-----5-----5-----5-----5----|

Guitar Solo

   GTR I
c#|-------------------------------------------------|
G#|-------------------------------------------------|
 E|-------------------------------------------------|
 B|/12---------/15----14---------------/17----15----|
F#|-------------------------------------------------|
 B|-------------------------------------------------|
  |
  |GTR II
c#|-------------------------------------------------|
G#|--3-----3-----3-----3----------------------------|
 E|--2-----2-----2-----2----------------------------|
 B|--0-----0-----0-----0-----3-----3-----3-----3----|
F#|--0-----0-----0-----0-----3-----3-----3-----3----|
 B|--0-----0-----0-----0-----3-----3-----3-----3----|

   GTR I
c#|-------------------------------------------------|
G#|-------------------------------------------------|
 E|-------------------------------------------------|
 B|------------/19----17----------------------------|
F#|-------------------------------------------------|
 B|-------------------------------------------------|
  |
  |GTR II
c#|-------------------------------------------------|
G#|-------------------------------------------------|
 E|-------------------------------------------------|
 B|--5-----5-----5-----5-----5-----5-----------3----|
F#|--5-----5-----5-----5-----5-----5-----------3----|
 B|--5-----5-----5-----5-----5-----5-----------3----|

   GTR I
c#|-------------------------------------------------|
G#|-------------------------------------------------|
 E|------------------------------------/17----------|
 B|-16---------/12----10----------12----------------|
F#|-------------------------------------------------|
 B|-------------------------------------------------|
  |
  |GTR II
c#|-------------------------------------------------|
G#|--3-----3-----3-----3----------------------------|
 E|--2-----2-----2-----2----------------------------|
 B|--0-----0-----0-----0-----2-----2-----2-----2----|
F#|--0-----0-----0-----0-----2-----2-----2-----2----|
 B|--0-----0-----0-----0-----2-----2-----2-----2----|

   GTR I
c#|-------------------------------------------------|
G#|-------15----18----------------------------------|
 E|-------------------17-----------------7/---------|
 B|-------------------------------------------------|
F#|-------------------------------------------------|
 B|-------------------------------------------------|
  |
  |GTR II
c#|-------------------------------------------------|
G#|-------------------------------------------------|
 E|-------------------------------------------------|
 B|--3-----3-----3-----3-----5-----5-----------3----|
F#|--3-----3-----3-----3-----5-----5-----------3----|
 B|--3-----3-----3-----3-----5-----5-----------3----|

   GTR I
c#|-------------------------------------------------|
G#|------------/18----17-----------------9/---------|
 E|-19----------------------------------------------|
 B|-------------------------------------------------|
F#|-------------------------------------------------|
 B|-------------------------------------------------|
  |
  |GTR II
c#|-------------------------------------------------|
G#|--3-----3-----3-----3----------------------------|
 E|--2-----2-----2-----2----------------------------|
 B|--0-----0-----0-----0-----3-----3-----3-----3----|
F#|--0-----0-----0-----0-----3-----3-----3-----3----|
 B|--0-----0-----0-----0-----3-----3-----3-----3----|

   GTR I
c#|-------------------------------------------------|
G#|-22----------------------------------------------|
 E|-------------------------------------------------|
 B|-------------------------------------------------|
F#|-------------------------------------------------|
 B|-------------------------------------------------|
  |
  |GTR II
c#|-------------------------------------------------|
G#|-------------------------------------------------|
 E|-------------------------------------------------|
 B|--5----------------------------------------------|
F#|--5----------------------------------------------|
 B|--5----------------------------------------------|

Verse 3

   GTR III
c#|-----------------------5--------------5-----5--5-|
G#|-----------------------5--------------5-----5--5-|
 E|--7-----------7--7-----7-----7--7-----7-----7--7-|
 B|--7-----------7--7-----7-----7--7-----7-----7--7-|
F#|--5-----------5--5-----5-----5--5-----5-----5--5-|
 B|-------------------------------------------------|

   GTR III
c#|-----------------------3--------------3-----3--3-|
G#|-----------------------3--------------3-----3--3-|
 E|--7-----------7--7-----7-----7--7-----7-----7--7-|
 B|--5-----------5--5-----5-----5--5-----5-----5--5-|
F#|--3-----------3--3-----3-----3--3-----3-----3--3-|
 B|-------------------------------------------------|

   GTR III
c#|-------------------------------------------------|
G#|-------------------------------------------------|
 E|--7-----------7--7-----7-----7--7-----7-----7--7-|
 B|--7-----------7--7-----7-----7--7-----7-----7--7-|
F#|--5-----------5--5-----5-----5--5-----5-----5--5-|
 B|--5-----------5--5-----5-----5--5-----5-----5--5-|

   GTR III
c#|-------------------------------------------------|
G#|-------------------------------------------------|
 E|--7-----------7-----7--7--5-----5-----7-----7----|
 B|--5-----------5-----5--5--3-----3-----5-----5----|
F#|--3-----------3-----3--3--3-----3-----5-----5----|
 B|--------------------------3-----3-----5-----5----|

   GTR I,III
c#|-----------------------5--------------5-----5--5-|
G#|-----------------------5--------------5-----5--5-|
 E|--7-----------7--7-----7-----7--7-----7-----7--7-|
 B|--7-----------7--7-----7-----7--7-----7-----7--7-|
F#|--5-----------5--5-----5-----5--5-----5-----5--5-|
 B|-------------------------------------------------|

   GTR I,III
c#|-----------------------3--------------3-----3--3-|
G#|-----------------------3--------------3-----3--3-|
 E|--7-----------7--7-----7-----7--7-----7-----7--7-|
 B|--5-----------5--5-----5-----5--5-----5-----5--5-|
F#|--3-----------3--3-----3-----3--3-----3-----3--3-|
 B|-------------------------------------------------|

   GTR I,III
c#|-------------------------------------------------|
G#|-------------------------------------------------|
 E|-------------------------------------------------|
 B|-------------------------------------------------|
F#|--5-----5-----5-----5-----5-----5-----5-----5----|
 B|--5-----5-----5-----5-----5-----5-----5-----5----|
     .     .     .     .     .     .     .     .

   GTR I,III
c#|-------------------------------------------------|
G#|-------------------------------------------------|
 E|-------------------------------------------------|
 B|--5-----5-----5-----5----------------------------|
F#|--3-----3-----3-----3-----3-----0--0-------------|
 B|--------------------------3-----0--0-/15\--------|
     .     .     .     .     .     .  .

Chorus 2

Outro

   GTR I
c#|-------------------------------------------------|
G#|-------------------------------------------------|
 E|-------------------------------------------------|
 B|-10---------/14----12----10---------/14----12----|
F#|-------12----------------------12----------------|
 B|-------------------------------------------------|
  |
  |GTR II
c#|-------------------------------------------------|
G#|--3-----3-----3-----3----------------------------|
 E|--2-----2-----2-----2----------------------------|
 B|--0-----0-----0-----0-----3-----3-----3-----3----|
F#|--0-----0-----0-----0-----3-----3-----3-----3----|
 B|--0-----0-----0-----0-----3-----3-----3-----3----|

   GTR I
c#|-------------------------------------------------|
G#|-------------------------------------------------|
 E|-------------------------------------------------|
 B|-10---------/14----12----10---------/14----12----|
F#|-------12----------------------12----------------|
 B|-------------------------------------------------|
  |
  |GTR II
c#|-------------------------------------------------|
G#|-------------------------------------------------|
 E|-------------------------------------------------|
 B|--5-----5-----5-----5-----5-----5-----------3----|
F#|--5-----5-----5-----5-----5-----5-----------3----|
 B|--5-----5-----5-----5-----5-----5-----------3----|

   GTR I
c#|-------------------------------------------------|
G#|-13---------/17----15----13---------/17----15----|
 E|-------14----------------------14----------------|
 B|-------------------------------------------------|
F#|-------------------------------------------------|
 B|-------------------------------------------------|
  |
  |GTR II
c#|-------------------------------------------------|
G#|--3-----3-----3-----3----------------------------|
 E|--2-----2-----2-----2----------------------------|
 B|--0-----0-----0-----0-----3-----3-----3-----3----|
F#|--0-----0-----0-----0-----3-----3-----3-----3----|
 B|--0-----0-----0-----0-----3-----3-----3-----3----|

   GTR I
c#|-------------------------------------------------|
G#|-13---------/17----15----13---------/17----15----|
 E|-------14----------------------14----------------|
 B|-------------------------------------------------|
F#|-------------------------------------------------|
 B|-------------------------------------------------|
  |
  |GTR II
c#|-------------------------------------------------|
G#|-------------------------------------------------|
 E|-------------------------------------------------|
 B|--5-----5-----5-----5-----5-----5-----------3----|
F#|--5-----5-----5-----5-----5-----5-----------3----|
 B|--5-----5-----5-----5-----5-----5-----------3----|

   GTR I
c#|-------------------------------------------------|
G#|-13---------/17----15----13---------/17----15----|
 E|-------14----------------------14----------------|
 B|-------------------------------------------------|
F#|-------------------------------------------------|
 B|-------------------------------------------------|
  |
  |GTR II
c#|-------------------------------------------------|
G#|--3-----3-----3-----3----------------------------|
 E|--2-----2-----2-----2----------------------------|
 B|--0-----0-----0-----0-----2-----2-----2-----2----|
F#|--0-----0-----0-----0-----2-----2-----2-----2----|
 B|--0-----0-----0-----0-----2-----2-----2-----2----|

   GTR I
c#|-------------------------------------------------|
G#|-13---------/17----15----13---------/17----15----|
 E|-------14----------------------14----------------|
 B|-------------------------------------------------|
F#|-------------------------------------------------|
 B|-------------------------------------------------|
  |
  |GTR II
c#|-------------------------------------------------|
G#|-------------------------------------------------|
 E|-------------------------------------------------|
 B|--3-----3-----3-----3-----5-----5-----5-----5----|
F#|--3-----3-----3-----3-----5-----5-----5-----5----|
 B|--3-----3-----3-----3-----5-----5-----5-----5----|

   GTR I
c#|-------------------------------------------------|
G#|-13---------/17----15----13---------/17----15----|
 E|-------14----------------------14----------------|
 B|-------------------------------------------------|
F#|-------------------------------------------------|
 B|-------------------------------------------------|
  |
  |GTR II
c#|-------------------------------------------------|
G#|--3-----3-----3-----3----------------------------|
 E|--2-----2-----2-----2----------------------------|
 B|--0-----0-----0-----0-----3-----3-----3-----3----|
F#|--0-----0-----0-----0-----3-----3-----3-----3----|
 B|--0-----0-----0-----0-----3-----3-----3-----3----|

   GTR I
c#|-------------------------------------------------|
G#|-13----------------------------------------------|
 E|-------------------------------------------------|
 B|-------------------------------------------------|
F#|-------------------------------------------------|
 B|-------------------------------------------------|
  |
  |GTR II
c#|-------------------------------------------------|
G#|-------------------------------------------------|
 E|-------------------------------------------------|
 B|--5----------------------------------------------|
F#|--5----------------------------------------------|
 B|--5----------------------------------------------|

   GTR I
c#|-------------------------------------------------|
G#|-13---------/17----15----13~---------------------|
 E|-------14----------------------------------------|
 B|-------------------------------------------------|
F#|-------------------------------------------------|
 B|-------------------------------------------------|

   GTR III
c#|-------------------------------------------------|
G#|-------------------------------------------------|
 E|-------------------------------------------------|
 B|-10---------/14----12----10---------/14----12----|
F#|-------12----------------------12----------------|
 B|-------------------------------------------------|

   GTR III
c#|-------------------------------------------------|
G#|-------------------------------------------------|
 E|-------------------------------------------------|
 B|-10---------/14----12----10---------/14----------|
F#|-------12----------------------12----------------|
 B|-------------------------------------------------|

   GTR III
c#|-------------------------------------------------|
G#|-------------------------------------------------|
 E|-------------------------------------------------|
 B|/14\---------------------------------------------|
F#|-------------------------------------------------|
 B|-------------------------------------------------|

END

------------------------------------------------------------------------------
4. Point To Prove
   Words & Music by Tyler Connolly and Chad Kroeger
------------------------------------------------------------------------------

GTR I - Drop C# Tuning "Tyler Connolly" (d#,A#,F#,C#,G#,C#)
GTR II - Drop C# Tuning "Dave Brenner" (d#,A#,F#,C#,G#,C#)
GTR III - Drop C# Tuning "Tyler Connolly" (d#,A#,F#,C#,G#,C#)

Intro

   GTR I
d#|-------------------------------------------------|
A#|--------5-----5--5--------5-----5--5-----5--5--5-|
F#|--------5-----5--5--------5-----5--5-----4--4--4-|
C#|--3--3-------------------------------------------|
G#|--3--3--------------x--x-------------------------|
C#|--3--3--------------x--x-------------------------|
  |
  |GTR II,III
d#|-------------------------------------------------|
A#|-------------------------------------------------|
F#|-------------------------------------------------|
C#|--3--3-------------------------------------------|
G#|--3--3-------------------------------------------|
C#|--3--3-------------------------------------------|

   GTR I
d#|--------5-----5--5--------5-----5----------------|
A#|--------5-----5--5--------5-----5----------------|
F#|-------------------------------------------------|
C#|--0--0----------------------------------12\------|
G#|--0--0--------------x--x-----------0--2-12\------|
C#|--0--0--------------x--x-----------0--2-12\------|
  |                                   .  .
  |GTR II,III
d#|-------------------------------------------------|
A#|-------------------------------------------------|
F#|-------------------------------------------------|
C#|--0--0----------------------------------12\------|
G#|--0--0-----------------------------0--2-12\------|
C#|--0--0-----------------------------0--2-12\------|
                                      .  .

Main Riff

   GTR I,II
d#|-------------------------------------------------|
A#|--------5-----5--5--------5-----5--5-------------|
F#|--------5-----5--5--------5-----5--5-------------|
C#|-----------------------------------------5-------|
G#|--3--3--------------3--3--------------3--5-------|
C#|--3--3--------------3--3--------------3--5-------|
  |  .  .              .  .              .
  |GTR III
d#|-------12----12----12----12----12----12----12----|
A#|----13----13----13----13----13----13----13----13-|
F#|-------------------------------------------------|
C#|-------------------------------------------------|
G#|-------------------------------------------------|
C#|-------------------------------------------------|
   
   GTR I,II
d#|--------5-----5--5--------5-----5--5-------------|
A#|--------5-----5--5--------5-----5--5-------------|
F#|-----------------------------------------4--4--4-|
C#|-----------------------------------------5--5--5-|
G#|--0--0--------------0--0-------------------------|
C#|--0--0--------------0--0-------------------------|
  |  .  .              .  .
  |GTR III
d#|-12----12----12----12----12----12----12----12----|
A#|----13----13----13----13----13----13----13----13-|
F#|-------------------------------------------------|
C#|-------------------------------------------------|
G#|-------------------------------------------------|
C#|-------------------------------------------------|

Verse

   GTR II
d#|-------------------------------------------------|
A#|-------------------------------------------------|
F#|-------------------------------------------------|
C#|-----------------------------------------5-------|
G#|-----3--3-----3--3-----3--3-----3--3-----5-------|
C#|-----3--3-----3--3-----3--3-----3--3-----5-------|
        .  .     .  .     .  .     .  .

   GTR II
d#|-------------------------------------------------|
A#|-------------------------------------------------|
F#|-------------------------------------------------|
C#|-----------------------------------------2-------|
G#|-----0--0-----0--0-----0--0-----0--0-----2-------|
C#|-----0--0-----0--0-----0--0-----0--0-----2-------|
        .  .     .  .     .  .     .  .

Main Riff
Verse

Pre Chorus

   GTR I,II
d#|-------------------------------------------------|
A#|--------5-----5--5--------5-----5--5-------------|
F#|--------5-----5--5--------5-----5--5-------------|
C#|-----------------------------------------5-------|
G#|--3--3--------------3--3--------------3--5-------|
C#|--3--3--------------3--3--------------3--5-------|
  |  .  .              .  .              .
  |GTR III
d#|-------12----12----12----12----12----12----12----|
A#|----13----13----13----13----13----13----13----13-|
F#|-------------------------------------------------|
C#|-------------------------------------------------|
G#|-------------------------------------------------|
C#|-------------------------------------------------|

   GTR I,II
d#|--------5-----5--5-------------------------------|
A#|--------5-----5--5-------------------------------|
F#|-------------------------------------------------|
C#|-----------------------------------0--0--0--0--0-|
G#|--0--0--------------0--0--0--0--0--0--0--0--0--0-|
C#|--0--0--------------0--0--0--0--0--0--0--0--0--0-|
  |  .  .              .  .  .  .  .
  |GTR III
d#|-12----12----12----12----12----12----12----12----|
A#|----13----13----13----13----13----13----13----13-|
F#|-------------------------------------------------|
C#|-------------------------------------------------|
G#|-------------------------------------------------|
C#|-------------------------------------------------|

Fill 1

   GTR I,II
d#|-------------------------------------------------|
A#|-------------------------------------------------|
F#|-------------------------------------------------|
C#|--8-----7-----------3-----------5----------------|
G#|--8-----7-----------3-----------5----------------|
C#|--8-----7-----------3-----------5----------------|

Chorus

   GTR I
d#|-------------------------------------------------|
A#|-------------------------------------------------|
F#|--7-----7-----7-----7--7-10----10----10----10-10-|
C#|--7-----7-----7-----7--7-10----10----10----10-10-|
G#|--5-----5-----5-----5--5--8-----8-----8-----8--8-|
C#|-------------------------------------------------|
  |
  |GTR II
d#|-------------------------------------------------|
A#|-------------------------------------------------|
F#|-------------------------------------------------|
C#|--0-----0-----0-----0--0--3-----3-----3-----3--3-|
G#|--0-----0-----0-----0--0--3-----3-----3-----3--3-|
C#|--0-----0-----0-----0--0--3-----3-----3-----3--3-|

   GTR I,II
d#|-------------------------------------------------|
A#|-------------------------------------------------|
F#|-------------------------------------------------|
C#|-10----10----10----10-10--5-----5-----5-----5--5-|
G#|--8-----8-----8-----8--8--5-----5-----5-----5--5-|
C#|--8-----8-----8-----8--8--5-----5-----5-----5--5-|

   GTR I
d#|-------------------------------------------------|
A#|-------------------------------------------------|
F#|--7-----7-----7-----7--7-10----10----10----10-10-|
C#|--7-----7-----7-----7--7-10----10----10----10-10-|
G#|--5-----5-----5-----5--5--8-----8-----8-----8--8-|
C#|-------------------------------------------------|
  |
  |GTR II
d#|-------------------------------------------------|
A#|-------------------------------------------------|
F#|-------------------------------------------------|
C#|--0-----0-----0-----0--0--3-----3-----3-----3--3-|
G#|--0-----0-----0-----0--0--3-----3-----3-----3--3-|
C#|--0-----0-----0-----0--0--3-----3-----3-----3--3-|

   GTR I,II
d#|-------------------------------------------------|
A#|-------------------------------------------------|
F#|-------------------------------------------------|
C#|-10----10----10----10-10--5-----5-----5-----5--5-|
G#|--8-----8-----8-----8--8--5-----5-----5-----5--5-|
C#|--8-----8-----8-----8--8--5-----5-----5-----5--5-|

Fill 1
Verse
Main Riff

Verse 2

   GTR II
d#|-------------------------------------------------|
A#|-------------------------------------------------|
F#|-------------------------------------------------|
C#|-------------------------------------------------|
G#|--0--3--3--0--3--3--0--3--3--0--3--3--0--3--5--5-|
C#|--0--3--3--0--3--3--0--3--3--0--3--3--0--3--5--5-|
     .  .  .  .  .  .  .  .  .  .  .  .  .  .  .  .

   GTR II
d#|-------------------------------------------------|
A#|-------------------------------------------------|
F#|-------------------------------------------------|
C#|-------------------------12----12-12-----9-10--9-|
G#|-10-12-12-10-12-12-10-12-12----12-12-----9-10--9-|
C#|-10-12-12-10-12-12-10-12-12----12-12-----9-10--9-|
     .  .  .  .  .  .  .  .            

Pre Chorus
Fill 1
Chorus

Chorus 2

   GTR I
d#|-------------------------------------------------|
A#|-------------------------------------------------|
F#|--7-----7-----7-----7--7-10----10----10----10-10-|
C#|--7-----7-----7-----7--7-10----10----10----10-10-|
G#|--5-----5-----5-----5--5--8-----8-----8-----8--8-|
C#|-------------------------------------------------|
  |
  |GTR II
d#|-------------------------------------------------|
A#|-------------------------------------------------|
F#|-------------------------------------------------|
C#|--0-----0-----0-----0--0--3-----3-----3-----3--3-|
G#|--0-----0-----0-----0--0--3-----3-----3-----3--3-|
C#|--0-----0-----0-----0--0--3-----3-----3-----3--3-|
  |
  |GTR III
d#|-12----12----12----12----12----12----12----12----|
A#|----13----13----13----13----13----13----13----13-|
F#|-------------------------------------------------|
C#|-------------------------------------------------|
G#|-------------------------------------------------|
C#|-------------------------------------------------|

   GTR I,II
d#|-------------------------------------------------|
A#|-------------------------------------------------|
F#|-------------------------------------------------|
C#|-10----10----10----10-10--5-----5-----5-----5--5-|
G#|--8-----8-----8-----8--8--5-----5-----5-----5--5-|
C#|--8-----8-----8-----8--8--5-----5-----5-----5--5-|
  |
  |GTR III
d#|-12----12----12----12----12----12----12----12----|
A#|----13----13----13----13----13----13----13----13-|
F#|-------------------------------------------------|
C#|-------------------------------------------------|
G#|-------------------------------------------------|
C#|-------------------------------------------------|

   GTR I
d#|-------------------------------------------------|
A#|-------------------------------------------------|
F#|--7-----7-----7-----7--7-10----10----10----10-10-|
C#|--7-----7-----7-----7--7-10----10----10----10-10-|
G#|--5-----5-----5-----5--5--8-----8-----8-----8--8-|
C#|-------------------------------------------------|
  |
  |GTR II
d#|-------------------------------------------------|
A#|-------------------------------------------------|
F#|-------------------------------------------------|
C#|--0-----0-----0-----0--0--3-----3-----3-----3--3-|
G#|--0-----0-----0-----0--0--3-----3-----3-----3--3-|
C#|--0-----0-----0-----0--0--3-----3-----3-----3--3-|
  |
  |GTR III
d#|-12----12----12----12----12----12----12----12----|
A#|----13----13----13----13----13----13----13----13-|
F#|-------------------------------------------------|
C#|-------------------------------------------------|
G#|-------------------------------------------------|
C#|-------------------------------------------------|

   GTR I,II
d#|-------------------------------------------------|
A#|-------------------------------------------------|
F#|-------------------------------------------------|
C#|-10----10----10----10-10--5-----5-----5-----5--5-|
G#|--8-----8-----8-----8--8--5-----5-----5-----5--5-|
C#|--8-----8-----8-----8--8--5-----5-----5-----5--5-|
  |
  |GTR III
d#|-12----12----12----12----12----12----12----12----|
A#|----13----13----13----13----13----13----13----13-|
F#|-------------------------------------------------|
C#|-------------------------------------------------|
G#|-------------------------------------------------|
C#|-------------------------------------------------|

Fill 1

Fill 2

   GTR I
d#|-------------------------------------------------|
A#|-------------------------------------------------|
F#|-------------------------------------------------|
C#|--3/-5--5/-7--7/10--5----------------------------|
G#|-------------------------------------------------|
C#|-------------------------------------------------|
  |
  |GTR II
d#|-------------------------------------------------|
A#|-------------------------------------------------|
F#|-------------------------------------------------|
C#|-------------------------------------------------|
G#|-------------------------------------------------|
C#|--3/-5--5/-7--7/10--5----------------------------|

Interlude

   GTR I,II
d#|-------------------------------------------------|
A#|-------------------------------------------------|
F#|-------------------------------------------------|
C#|--3--3--3--3--3--3--3--3--3--3--3--3--3--3--3--3-|
G#|--3--3--3--3--3--3--3--3--3--3--3--3--3--3--3--3-|
C#|--3--3--3--3--3--3--3--3--3--3--3--3--3--3--3--3-|
  |
  |GTR III
d#|-12----12----12----12----12----12----12----12----|
A#|----13----13----13----13----13----13----13----13-|
F#|-------------------------------------------------|
C#|-------------------------------------------------|
G#|-------------------------------------------------|
C#|-------------------------------------------------|

   GTR I,II
d#|-------------------------------------------------|
A#|--3--3--3--3--3--3--3--3--3--3--3--3--3--3--3--3-|
F#|--2--2--2--2--2--2--2--2--2--2--2--2--2--2--2--2-|
C#|--0--0--0--0--0--0--0--0--0--0--0--0--0--0--0--0-|
G#|--0--0--0--0--0--0--0--0--0--0--0--0--0--0--0--0-|
C#|--0--0--0--0--0--0--0--0--0--0--0--0--0--0--0--0-|
  |
  |GTR III
d#|-12----12----12----12----12----12----12----12----|
A#|----13----13----13----13----13----13----13----13-|
F#|-------------------------------------------------|
C#|-------------------------------------------------|
G#|-------------------------------------------------|
C#|-------------------------------------------------|

   GTR I,II
d#|-------------------------------------------------|
A#|-------------------------------------------------|
F#|-------------------------------------------------|
C#|--3--3--3--3--3--3--3--3--3--3--3--3--3--3--3--3-|
G#|--3--3--3--3--3--3--3--3--3--3--3--3--3--3--3--3-|
C#|--3--3--3--3--3--3--3--3--3--3--3--3--3--3--3--3-|
  |
  |GTR III
d#|-12----12----12----12----12----12----12----12----|
A#|----13----13----13----13----13----13----13----13-|
F#|-------------------------------------------------|
C#|-------------------------------------------------|
G#|-------------------------------------------------|
C#|-------------------------------------------------|

   GTR I,II
d#|-------------------------------------------------|
A#|--3--3--3--3--3--3--3--3--3--3--3--3--3--3--3--3-|
F#|--2--2--2--2--2--2--2--2--2--2--2--2--2--2--2--2-|
C#|--0--0--0--0--0--0--0--0--0--0--0--0--0--0--0--0-|
G#|--0--0--0--0--0--0--0--0--0--0--0--0--0--0--0--0-|
C#|--0--0--0--0--0--0--0--0--0--0--0--0--0--0--0--0-|
  |
  |GTR III
d#|-12----12----12----12----12----12----12----12----|
A#|----13----13----13----13----13----13----13----13-|
F#|-------------------------------------------------|
C#|-------------------------------------------------|
G#|-------------------------------------------------|
C#|-------------------------------------------------|

   GTR I,II
d#|-------------------------------------------------|
A#|-------------------------------------------------|
F#|-------------------------------------------------|
C#|--3--3--3--3--3--3--3--3--3--3--3--3--3--3--3--3-|
G#|--3--3--3--3--3--3--3--3--3--3--3--3--3--3--3--3-|
C#|--3--3--3--3--3--3--3--3--3--3--3--3--3--3--3--3-|
  |
  |GTR III
d#|-12----12----12----12----12----12----12----12----|
A#|----13----13----13----13----13----13----13----13-|
F#|-------------------------------------------------|
C#|-------------------------------------------------|
G#|-------------------------------------------------|
C#|-------------------------------------------------|

   GTR I,II
d#|-------------------------------------------------|
A#|--3--3--3--3--3--3--3--3--3--3--3--3--3--3--3--3-|
F#|--2--2--2--2--2--2--2--2--2--2--2--2--2--2--2--2-|
C#|--0--0--0--0--0--0--0--0--0--0--0--0--0--0--0--0-|
G#|--0--0--0--0--0--0--0--0--0--0--0--0--0--0--0--0-|
C#|--0--0--0--0--0--0--0--0--0--0--0--0--0--0--0--0-|
  |
  |GTR III
d#|-12----12----12----12----12----12----12----12----|
A#|----13----13----13----13----13----13----13----13-|
F#|-------------------------------------------------|
C#|-------------------------------------------------|
G#|-------------------------------------------------|
C#|-------------------------------------------------|

   GTR I,II
d#|-------------------------------------------------|
A#|-------------------------------------------------|
F#|-------------------------------------------------|
C#|--3--3--3--3--3--3--3--3--3--3--3--3--3--3--3--3-|
G#|--3--3--3--3--3--3--3--3--3--3--3--3--3--3--3--3-|
C#|--3--3--3--3--3--3--3--3--3--3--3--3--3--3--3--3-|
  |
  |GTR III
d#|-12----12----12----12----12----12----12----12----|
A#|----13----13----13----13----13----13----13----13-|
F#|-------------------------------------------------|
C#|-------------------------------------------------|
G#|-------------------------------------------------|
C#|-------------------------------------------------|

   GTR I,II
d#|-------------------------------------------------|
A#|-------------------------------------------------|
F#|-------------------------------------------------|
C#|--------------------------0--0--0--0--0--0--0--0-|
G#|--0--0--0--0--0--0--0--0--0--0--0--0--0--0--0--0-|
C#|--0--0--0--0--0--0--0--0--0--0--0--0--0--0--0--0-|
     .  .  .  .  .  .  .  .

Fill 3

   GTR I,II
d#|-------------------------------------------------|
A#|--------5-----5--5--------5-----5--5-------------|
F#|--------5-----5--5--------5-----5--5-------------|
C#|-----------------------------------------5-------|
G#|--3--3--------------3--3--------------3--5-------|
C#|--3--3--------------3--3--------------3--5-------|
     .  .              .  .              .
   
   GTR I,II
d#|--------5-----5--5--------5-----5--5-------------|
A#|--------5-----5--5--------5-----5--5-------------|
F#|-----------------------------------------4--4--4-|
C#|-----------------------------------------5--5--5-|
G#|--0--0--------------0--0-------------------------|
C#|--0--0--------------0--0-------------------------|
     .  .              .  .

   GTR I,II
d#|-------------------------------------------------|
A#|--------5-----5--5--------5-----5--5-------------|
F#|--------5-----5--5--------5-----5--5-------------|
C#|-----------------------------------------5-------|
G#|--3--3--------------3--3--------------3--5-------|
C#|--3--3--------------3--3--------------3--5-------|
     .  .              .  .              .
   
   GTR I
d#|-------------------------------------------------|
A#|-------------------------------------------------|
F#|--------------------------7--5--5--7-10-10-10-10-|
C#|--------------------------x--x--x--x--x--x--x--x-|
G#|--------------------------5--3--3--5--8--8--8--8-|
C#|-------------------------------------------------|
  |
  |GTR II
d#|--------5-----5--5--------5-----5--5-------------|
A#|--------5-----5--5--------5-----5--5-------------|
F#|-----------------------------------------4--4--4-|
C#|-----------------------------------------5--5--5-|
G#|--0--0--------------0--0-------------------------|
C#|--0--0--------------0--0-------------------------|
     .  .              .  .

   GTR I
d#|-------------------------|
A#|-------------------------|
F#|--7--5--5--7-12b---------|
C#|--x--x--x--x--x----------|
G#|--5--3--3--5-10b---------|
C#|-------------------------|

Chorus
Chorus 2

Outro

   GTR I
d#|-------------------------------------------------|
A#|-------------------------------------------------|
F#|--7-----7-----7-----7--7-10----10----10----10-10-|
C#|--7-----7-----7-----7--7-10----10----10----10-10-|
G#|--5-----5-----5-----5--5--8-----8-----8-----8--8-|
C#|-------------------------------------------------|
  |
  |GTR II
d#|-------------------------------------------------|
A#|-------------------------------------------------|
F#|-------------------------------------------------|
C#|--0-----0-----0-----0--0--3-----3-----3-----3--3-|
G#|--0-----0-----0-----0--0--3-----3-----3-----3--3-|
C#|--0-----0-----0-----0--0--3-----3-----3-----3--3-|
  |
  |GTR III
d#|-------------------------------------------------|
A#|-------------------------------------------------|
F#|/14---------------\12---------/17----------------|
C#|-------------------------------------------------|
G#|-------------------------------------------------|
C#|-------------------------------------------------|

   GTR I,II
d#|-------------------------------------------------|
A#|-------------------------------------------------|
F#|-------------------------------------------------|
C#|-10----10----10----10-10--5-----5-----5-----5--5-|
G#|--8-----8-----8-----8--8--5-----5-----5-----5--5-|
C#|--8-----8-----8-----8--8--5-----5-----5-----5--5-|
  |
  |GTR III
d#|-------------------------------------------------|
A#|-------------------------------------------------|
F#|/14---------------\12---------/17----------------|
C#|-------------------------------------------------|
G#|-------------------------------------------------|
C#|-------------------------------------------------|

   GTR I
d#|-------------------------------------------------|
A#|-------------------------------------------------|
F#|--7-----7-----7-----7--7-10----10----10----10-10-|
C#|--7-----7-----7-----7--7-10----10----10----10-10-|
G#|--5-----5-----5-----5--5--8-----8-----8-----8--8-|
C#|-------------------------------------------------|
  |
  |GTR II
d#|-------------------------------------------------|
A#|-------------------------------------------------|
F#|-------------------------------------------------|
C#|--0-----0-----0-----0--0--3-----3-----3-----3--3-|
G#|--0-----0-----0-----0--0--3-----3-----3-----3--3-|
C#|--0-----0-----0-----0--0--3-----3-----3-----3--3-|
  |
  |GTR III
d#|-------------------------------------------------|
A#|-------------------------------------------------|
F#|/14---------------\12---------/17----------------|
C#|-------------------------------------------------|
G#|-------------------------------------------------|
C#|-------------------------------------------------|

   GTR I,II
d#|-------------------------------------------------|
A#|-------------------------------------------------|
F#|-------------------------------------------------|
C#|-10----10----10----10-10--5-----5-----5-----5--5-|
G#|--8-----8-----8-----8--8--5-----5-----5-----5--5-|
C#|--8-----8-----8-----8--8--5-----5-----5-----5--5-|
  |
  |GTR III
d#|-------------------------------------------------|
A#|-------------------------------------------------|
F#|/14---------------\12---------/17----------------|
C#|-------------------------------------------------|
G#|-------------------------------------------------|
C#|-------------------------------------------------|

Fill 4

   GTR I,II
d#|-------------------------------------------------|
A#|-------------------------------------------------|
F#|-------------------------------------------------|
C#|--8-----7-----------3-----------5----------------|
G#|--8-----7-----------3-----------5----------------|
C#|--8-----7-----------3-----------5----------------|
  |
  |GTR III
d#|-------------------------------------------------|
A#|-------------------------------------------------|
F#|/19----------------------------------------------|
C#|-------------------------------------------------|
G#|-------------------------------------------------|
C#|-------------------------------------------------|

END

------------------------------------------------------------------------------
5. Leg To Stand On
   Words & Music by Tyler Connolly
------------------------------------------------------------------------------

GTR I - Drop B Tuning "Tyler Connolly" (c#,G#,E,B,F#,B)
GTR II - Drop B Tuning "Dave Brenner" (c#,G#,E,B,F#,B)

Intro

   GTR I
c#|-------------------------------------------------|
G#|-----------x-----x--x--------x-----x--x----------|
 E|-10\-------2-----2--2--------2-----2--2----------|
 B|-10\-------0-----0--0--------0-----0--0-----3----|
F#|--8\-------0-----0--0--x--x--0-----0--0-----3----|
 B|-----------------------x--x-----------------3----|
  |
  |GTR II
c#|-------------------------------------------------|
G#|-----------x-----x--x--------x-----x--x----------|
 E|-----------2-----2--2--------2-----2--2----------|
 B|--3\-------0-----0--0--------0-----0--0-----3----|
F#|--3\-------0-----0--0--x--x--0-----0--0-----3----|
 B|--3\-------------------x--x-----------------3----|

   GTR I
c#|-------------------------------------------------|
G#|-----------x-----x--x--------x-----x--x----------|
 E|-----------2-----2--2--------2-----2--2----------|
 B|--3-----3--0-----0--0--------0-----0--0-----3----|
F#|--3-----3--0-----0--0--x--x--0-----0--0-----3----|
 B|--3-----3--------------x--x-----------------3----|

   GTR I
c#|-------------------------------------------------|
G#|-----------x-----x--x--------x-----x--x----------|
 E|-10\-------2-----2--2--------2-----2--2----------|
 B|-10\-------0-----0--0--------0-----0--0-----3----|
F#|--8\-------0-----0--0--x--x--0-----0--0-----3----|
 B|-----------------------x--x-----------------3----|
  |
  |GTR II
c#|-------------------------------------------------|
G#|-----------x-----x--x--------x-----x--x----------|
 E|-----------2-----2--2--------2-----2--2----------|
 B|--3\-------0-----0--0--------0-----0--0-----3----|
F#|--3\-------0-----0--0--x--x--0-----0--0-----3----|
 B|--3\-------------------x--x-----------------3----|

   GTR I
c#|-------------------------------------------------|
G#|-----------x-----x--x--------x-----x-------------|
 E|-----------2-----2--2--------2-----2-------------|
 B|--3-----3--0-----0--0--------0-----0-------------|
F#|--3-----3--0-----0--0--x--x--0-----0-------------|
 B|--3-----3--------------x--x----------------------|

Verse

   GTR I
c#|-------------------------------------------------|
G#|-------------------------------------------------|
 E|-10\---------------------------------------------|
 B|-10\---------------------------------------------|
F#|--8\---------------------------------------------|
 B|-------------------------------------------------|
  |
  |GTR II
c#|-------------------------------------------------|
G#|-------------------------------------------------|
 E|-------------------------------------------------|
 B|--3\---------------------------------------------|
F#|--3\-------0-----0--0--x--x--0-----0--0-----3----|
 B|--3\-------0-----0--0--x--x--0-----0--0-----3----|
              .     .  .        .     .  .     .

   GTR II
c#|-------------------------------------------------|
G#|-------------------------------------------------|
 E|-------------------------------------------------|
 B|--3\---------------------------------------------|
F#|--3\-------0-----0--0--x--x--0-----3--0--3--5----|
 B|--3\-------0-----0--0--x--x--0-----3--0--3--5----|
              .     .  .        .     .  .  .  .

   GTR I,II
c#|-------------------------------------------------|
G#|-------------------------------------------------|
 E|--5-----5--5--5--5--5--5-------------------------|
 B|--5-----5--5--5--5--5--5--5-----5--3--0--3--0--5-|
F#|--3-----3--3--3--3--3--3--5-----5--3--0--3--0--5-|
 B|--------------------------5-----5--3--0--3--0--5-|

   GTR I,II
c#|-------------------------------------------------|
G#|-------------------------------------------------|
 E|-------------------------------------------------|
 B|--3\-------0-----0--0--------0-----0--0-----3----|
F#|--3\-------0-----0--0--x--x--0-----0--0-----3----|
 B|--3\-------0-----0--0--x--x--0-----0--0-----3----|

   GTR I
c#|-------------------------------------------------|
G#|-------------------------------------------------|
 E|-10\---------------------------------------------|
 B|-10\---------------------------------------------|
F#|--8\---------------------------------------------|
 B|-------------------------------------------------|
  |
  |GTR II
c#|-------------------------------------------------|
G#|-------------------------------------------------|
 E|-------------------------------------------------|
 B|--3\---------------------------------------------|
F#|--3\-------0-----0--0--x--x--0-----0--0-----3----|
 B|--3\-------0-----0--0--x--x--0-----0--0-----3----|
              .     .  .        .     .  .     .

   GTR II
c#|-------------------------------------------------|
G#|-------------------------------------------------|
 E|-------------------------------------------------|
 B|--3\---------------------------------------------|
F#|--3\-------0-----0--0--x--x--0-----3--0--3--5----|
 B|--3\-------0-----0--0--x--x--0-----3--0--3--5----|
              .     .  .        .     .  .  .  .

   GTR I,II
c#|-------------------------------------------------|
G#|-------------------------------------------------|
 E|--5-----5--5--5--5--5--5-------------------------|
 B|--5-----5--5--5--5--5--5--5-----5--3--0--3--0--5-|
F#|--3-----3--3--3--3--3--3--5-----5--3--0--3--0--5-|
 B|--------------------------5-----5--3--0--3--0--5-|

   GTR I,II
c#|-------------------------------------------------|
G#|-------------------------------------------------|
 E|-------------------------------------------------|
 B|--3\-------0-----0--0--------0-----0--0----------|
F#|--3\-------0-----0--0--x--x--0-----0--0--5--3----|
 B|--3\-------0-----0--0--x--x--0-----0--0----------|

Pre Chorus

   GTR I,II
c#|-------------------------------------------------|
G#|-------------------------------------------------|
 E|-------------------------------------------------|
 B|--8-----8--8--8--8--8--8--8--8--8--8--8--8--8--8-|
F#|--8-----8--8--8--8--8--8--8--8--8--8--8--8--8--8-|
 B|--8-----8--8--8--8--8--8--8--8--8--8--8--8--8--8-|

   GTR I,II
c#|-------------------------------------------------|
G#|-------------------------------------------------|
 E|-------------------------------------------------|
 B|--5-----5--5--5--5--5--5--5--5--5--5--5----------|
F#|--5-----5--5--5--5--5--5--5--5--5--5--5--5--3----|
 B|--5-----5--5--5--5--5--5--5--5--5--5--5----------|

   GTR I,II
c#|-------------------------------------------------|
G#|-------------------------------------------------|
 E|-------------------------------------------------|
 B|--8-----8--8--8--8--8--8--8--8--8--8--8--8--8--8-|
F#|--8-----8--8--8--8--8--8--8--8--8--8--8--8--8--8-|
 B|--8-----8--8--8--8--8--8--8--8--8--8--8--8--8--8-|

   GTR I,II
c#|-------------------------------------------------|
G#|-------------------------------------------------|
 E|-------------------------------------------------|
 B|--5-----5--5--5--5--5--5--5--5--5--5--5--0--0--0-|
F#|--5-----5--5--5--5--5--5--5--5--5--5--5--0--0--0-|
 B|--5-----5--5--5--5--5--5--5--5--5--5--5--0--0--0-|

   GTR I
c#|-------------------------------------------------|
G#|-------------------------------------------------|
 E|-------------------------------------------------|
 B|--8-----8--8--8--8--8--8--8--8--8--8--8--8--8--8-|
F#|--8-----8--8--8--8--8--8--8--8--8--8--8--8--8--8-|
 B|--8-----8--8--8--8--8--8--8--8--8--8--8--8--8--8-|
  |
  |GTR II
c#|-------------------------------------------------|
G#|--------------3-----------------------3----------|
 E|-------------------------------------------------|
 B|-----------0-----------------------0-------------|
F#|-------------------------------------------------|
 B|-------------------------------------------------|

   GTR I,II
c#|-------------------------------------------------|
G#|-------------------------------------------------|
 E|-------------------------------------------------|
 B|--5-----5--5--5--5--5--5--5--5--5--5--5----------|
F#|--5-----5--5--5--5--5--5--5--5--5--5--5--3--5----|
 B|--5-----5--5--5--5--5--5--5--5--5--5--5----------|
  |
  |GTR II
c#|-------------------------------------------------|
G#|--------------3-----------------------3----------|
 E|-------------------------------------------------|
 B|-----------0-----------------------0-------------|
F#|-------------------------------------------------|
 B|-------------------------------------------------|

   GTR I
c#|-------------------------------------------------|
G#|-------------------------------------------------|
 E|-------------------------------------------------|
 B|--8-----8--8--8--8--8--8--8--8--8--8--8--8--8--8-|
F#|--8-----8--8--8--8--8--8--8--8--8--8--8--8--8--8-|
 B|--8-----8--8--8--8--8--8--8--8--8--8--8--8--8--8-|
  |
  |GTR II
c#|-------------------------------------------------|
G#|--------------3-----------------------3----------|
 E|-------------------------------------------------|
 B|-----------0-----------------------0-------------|
F#|-------------------------------------------------|
 B|-------------------------------------------------|

   GTR I,II
c#|-------------------------------------------------|
G#|-------------------------------------------------|
 E|-------------------------------------------------|
 B|--5-----5--5--5--5--5--5--5\---------------------|
F#|--5-----5--5--5--5--5--5--5\---------------------|
 B|--5-----5--5--5--5--5--5--5\---------------------|
  |
  |GTR II
c#|-------------------------------------------------|
G#|--------------3----------------------------------|
 E|-------------------------------------------------|
 B|-----------0-------------------------------------|
F#|-------------------------------------------------|
 B|-------------------------------------------------|

Verse 2

   GTR I
c#|-------------------------------------------------|
G#|-------------------------------------------------|
 E|-10\---------------------------------------------|
 B|-10\---------------------------------------------|
F#|--8\---------------------------------------------|
 B|-------------------------------------------------|
  |
  |GTR II
c#|-------------------------------------------------|
G#|-------------------------------------------------|
 E|-------------------------------------------------|
 B|--3\---------------------------------------------|
F#|--3\-------0-----0--0--x--x--0-----0--0-----3----|
 B|--3\-------0-----0--0--x--x--0-----0--0-----3----|
              .     .  .        .     .  .     .

   GTR II
c#|-------------------------------------------------|
G#|-------------------------------------------------|
 E|-------------------------------------------------|
 B|--3\---------------------------------------------|
F#|--3\-------0-----0--0--x--x--0-----3--0--3--5----|
 B|--3\-------0-----0--0--x--x--0-----3--0--3--5----|
              .     .  .        .     .  .  .  .

   GTR I,II
c#|-------------------------------------------------|
G#|-------------------------------------------------|
 E|--5-----5--5--5--5--5--5-------------------------|
 B|--5-----5--5--5--5--5--5--5-----5--3--0--3--0--5-|
F#|--3-----3--3--3--3--3--3--5-----5--3--0--3--0--5-|
 B|--------------------------5-----5--3--0--3--0--5-|

   GTR I,II
c#|-------------------------------------------------|
G#|-------------------------------------------------|
 E|-------------------------------------------------|
 B|--3\-------0-----0--0----------------------------|
F#|--3\-------0-----0--0--x--x--0--0--0--0--0--0--0-|
 B|--3\-------0-----0--0--x--x--0--0--0--0--0--0--0-|
                                .  .  .  .  .  .  .

   GTR I
c#|-------------------------------------------------|
G#|-------------------------------------------------|
 E|-10\---------------------------------------------|
 B|-10\---------------------------------------------|
F#|--8\---------------------------------------------|
 B|-------------------------------------------------|
  |
  |GTR II
c#|-------------------------------------------------|
G#|-------------------------------------------------|
 E|-------------------------------------------------|
 B|--3\---------------------------------------------|
F#|--3\-------0-----0--0--x--x--0-----0--0-----3----|
 B|--3\-------0-----0--0--x--x--0-----0--0-----3----|
              .     .  .        .     .  .     .

   GTR II
c#|-------------------------------------------------|
G#|-------------------------------------------------|
 E|-------------------------------------------------|
 B|--3\---------------------------------------------|
F#|--3\-------0-----0--0--x--x--0-----3--0--3--5----|
 B|--3\-------0-----0--0--x--x--0-----3--0--3--5----|
              .     .  .        .     .  .  .  .

   GTR I,II
c#|-------------------------------------------------|
G#|-------------------------------------------------|
 E|--5-----5--5--5--5--5--5-------------------------|
 B|--5-----5--5--5--5--5--5--5-----5--3--0--3--0--5-|
F#|--3-----3--3--3--3--3--3--5-----5--3--0--3--0--5-|
 B|--------------------------5-----5--3--0--3--0--5-|

   GTR I,II
c#|-------------------------------------------------|
G#|-------------------------------------------------|
 E|-------------------------------------------------|
 B|--3\-------0-----0--0--------0-----0--0----------|
F#|--3\-------0-----0--0--x--x--0-----0--0--5--3----|
 B|--3\-------0-----0--0--x--x--0-----0--0----------|

Pre Chorus 2

   GTR I,II
c#|-------------------------------------------------|
G#|-------------------------------------------------|
 E|-------------------------------------------------|
 B|--8-----8--8--8--8--8--8--8--8--8--8--8--8--8--8-|
F#|--8-----8--8--8--8--8--8--8--8--8--8--8--8--8--8-|
 B|--8-----8--8--8--8--8--8--8--8--8--8--8--8--8--8-|

   GTR I,II
c#|-------------------------------------------------|
G#|-------------------------------------------------|
 E|-------------------------------------------------|
 B|--5-----5--5--5--5--5--5--5--5--5--5--5----------|
F#|--5-----5--5--5--5--5--5--5--5--5--5--5--5--3----|
 B|--5-----5--5--5--5--5--5--5--5--5--5--5----------|

   GTR I,II
c#|-------------------------------------------------|
G#|-------------------------------------------------|
 E|-------------------------------------------------|
 B|--8-----8--8--8--8--8--8--8--8--8--8--8--8--8--8-|
F#|--8-----8--8--8--8--8--8--8--8--8--8--8--8--8--8-|
 B|--8-----8--8--8--8--8--8--8--8--8--8--8--8--8--8-|

   GTR I,II
c#|-------------------------------------------------|
G#|-------------------------------------------------|
 E|-------------------------------------------------|
 B|--5-----5--5--5--5--5--5--5--5--5--5--5--0--0--0-|
F#|--5-----5--5--5--5--5--5--5--5--5--5--5--0--0--0-|
 B|--5-----5--5--5--5--5--5--5--5--5--5--5--0--0--0-|

   GTR I
c#|-------------------------------------------------|
G#|-------------------------------------------------|
 E|-------------------------------------------------|
 B|--8-----8--8--8--8--8--8--8--8--8--8--8--8--8--8-|
F#|--8-----8--8--8--8--8--8--8--8--8--8--8--8--8--8-|
 B|--8-----8--8--8--8--8--8--8--8--8--8--8--8--8--8-|
  |
  |GTR II
c#|-------------------------------------------------|
G#|--------------3-----------------------3----------|
 E|-------------------------------------------------|
 B|-----------0-----------------------0-------------|
F#|-------------------------------------------------|
 B|-------------------------------------------------|

   GTR I,II
c#|-------------------------------------------------|
G#|-------------------------------------------------|
 E|-------------------------------------------------|
 B|--5-----5--5--5--5--5--5--5--5--5--5--5----------|
F#|--5-----5--5--5--5--5--5--5--5--5--5--5--3--5----|
 B|--5-----5--5--5--5--5--5--5--5--5--5--5----------|
  |
  |GTR II
c#|-------------------------------------------------|
G#|--------------3-----------------------3----------|
 E|-------------------------------------------------|
 B|-----------0-----------------------0-------------|
F#|-------------------------------------------------|
 B|-------------------------------------------------|

   GTR I
c#|-------------------------------------------------|
G#|-------------------------------------------------|
 E|-------------------------------------------------|
 B|--8-----8--8--8--8--8--8--8--8--8--8--8--8--8--8-|
F#|--8-----8--8--8--8--8--8--8--8--8--8--8--8--8--8-|
 B|--8-----8--8--8--8--8--8--8--8--8--8--8--8--8--8-|
  |
  |GTR II
c#|-------------------------------------------------|
G#|--------------3-----------------------3----------|
 E|-------------------------------------------------|
 B|-----------0-----------------------0-------------|
F#|-------------------------------------------------|
 B|-------------------------------------------------|

   GTR I,II
c#|-------------------------------------------------|
G#|-------------------------------------------------|
 E|-------------------------------------------------|
 B|--5--5--5--5--5--5--5--5--5--5--5--5--5--5--5--5-|
F#|--5--5--5--5--5--5--5--5--5--5--5--5--5--5--5--5-|
 B|--5--5--5--5--5--5--5--5--5--5--5--5--5--5--5--5-|

Chorus

   GTR I,II
c#|-------------------------------------------------|
G#|-------------------------------------------------|
 E|--------------------------5-----5--5--5--5--5--5-|
 B|--0-----0--0--0--0--0--0--5-----5--5--5--5--5--5-|
F#|--0-----0--0--0--0--0--0--3-----3--3--3--3--3--3-|
 B|--0-----0--0--0--0--0--0-------------------------|

   GTR I,II
c#|-------------------------------------------------|
G#|-------------------------------------------------|
 E|-------------------------------------------------|
 B|--5-----5--5--5--5--5--5--3-----3--3--3--3--2--2-|
F#|--5-----5--5--5--5--5--5--3-----3--3--3--3--2--2-|
 B|--5-----5--5--5--5--5--5--3-----3--3--3--3--2--2-|

   GTR I,II
c#|-------------------------------------------------|
G#|-------------------------------------------------|
 E|--------------------------5-----5--5--5--5--5--5-|
 B|--0-----0--0--0--0--0--0--5-----5--5--5--5--5--5-|
F#|--0-----0--0--0--0--0--0--3-----3--3--3--3--3--3-|
 B|--0-----0--0--0--0--0--0-------------------------|

   GTR I,II
c#|-------------------------------------------------|
G#|-------------------------------------------------|
 E|-------------------------------------------------|
 B|--5-----5--5--5--5--5--5--3-----3--3--3--3--2--2-|
F#|--5-----5--5--5--5--5--5--3-----3--3--3--3--2--2-|
 B|--5-----5--5--5--5--5--5--3-----3--3--3--3--2--2-|

Post Chorus

   GTR I,II
c#|-------------------------------------------------|
G#|-------------------------------------------------|
 E|--------------------------5--------5--------5----|
 B|--0--------0--------0-----5--5--5--5--5--5--5--5-|
F#|--0--0--0--0--0--0--0--0--3--3--3--3--3--3--3--3-|
 B|--0--0--0--0--0--0--0--0-------------------------|
        .  .     .  .     .     .  .     .  .     .

   GTR I,II                              PH.
c#|-------------------------------------------------|
G#|-------------------------------------------------|
 E|--4--------4--------4----------------------------|
 B|--4--4--4--4--4--4--4--4--3-----3----------------|
F#|--2--2--2--2--2--2--2--2--3--3--3--3-------------|
 B|--------------------------3--3--3--3--3b---------|
        .  .     .  .     .     .     .            

   GTR I,II
c#|-------------------------------------------------|
G#|-------------------------------------------------|
 E|--------------------------5--------5--------5----|
 B|--0--------0--------0-----5--5--5--5--5--5--5--5-|
F#|--0--0--0--0--0--0--0--0--3--3--3--3--3--3--3--3-|
 B|--0--0--0--0--0--0--0--0-------------------------|
        .  .     .  .     .     .  .     .  .     .

   GTR I,II                              
c#|-------------------------------------------------|
G#|-------------------------------------------------|
 E|--4----------------------------------------------|
 B|--4-----------------------------3--3--3--3--2--2-|
F#|--2-----------------------------3--3--3--3--2--2-|
 B|--------------------------------3--3--3--3--2--2-|

Guitar Solo

   GTR I
c#|-------------------------------------------------|
G#|-------------------------------------------------|
 E|-------------------------------------------------|
 B|--0-----------0--2-----3--------------2--3-----5-|
F#|-------------------------------------------------|
 B|-------------------------------------------------|
  |
  |GTR II
c#|-------------------------------------------------|
G#|-------------------------------------------------|
 E|--------------------------5-----5--5--5--5--5--5-|
 B|--0-----0--0--0--0--0--0--5-----5--5--5--5--5--5-|
F#|--0-----0--0--0--0--0--0--3-----3--3--3--3--3--3-|
 B|--0-----0--0--0--0--0--0-------------------------|

   GTR I
c#|-------------------------------------------------|
G#|-------------------------------------------------|
 E|-------------------------------------------------|
 B|-----------------3--5--5b------------------------|
F#|-------------------------------------------------|
 B|-----------------------------0--3--5--6--5--3--0-|
  |
  |GTR II
c#|-------------------------------------------------|
G#|-------------------------------------------------|
 E|--4-----4--4--4--4--4--4-------------------------|
 B|--4-----4--4--4--4--4--4--3-----3--3--3--3--2--2-|
F#|--2-----2--2--2--2--2--2--3-----3--3--3--3--2--2-|
 B|--------------------------3-----3--3--3--3--2--2-|

   GTR I
c#|-------------------------------------------------|
G#|-------------------------------------------------|
 E|----------------------------/5--6--7----/5--6--7-|
 B|----/5--6--7----/5--6--7-------------------------|
F#|-------------------------------------------------|
 B|-------------------------------------------------|
  |
  |GTR II
c#|-------------------------------------------------|
G#|-------------------------------------------------|
 E|--------------------------5-----5--5--5--5--5--5-|
 B|--0-----0--0--0--0--0--0--5-----5--5--5--5--5--5-|
F#|--0-----0--0--0--0--0--0--3-----3--3--3--3--3--3-|
 B|--0-----0--0--0--0--0--0-------------------------|

   GTR I
c#|-------------------------------------------------|
G#|--6-----6h8p6----6h8p6----6--8----15-13-------15-|
 E|-----7--------7--------7----------------12-14----|
 B|-------------------------------------------------|
F#|-------------------------------------------------|
 B|-------------------------------------------------|
  |
  |GTR II
c#|-------------------------------------------------|
G#|-------------------------------------------------|
 E|--4-----4--4--4--4--4--4-------------------------|
 B|--4-----4--4--4--4--4--4--3-----3--3--3----------|
F#|--2-----2--2--2--2--2--2--3-----3--3--3--5--3----|
 B|--------------------------3-----3--3--3----------|

Outro

   GTR I
c#|-------------------------------------------------|
G#|-------------------------------------------------|
 E|-------------------------------------------------|
 B|--8-----8--8--8--8--8--8--8--8--8--8--8--8--8--8-|
F#|--8-----8--8--8--8--8--8--8--8--8--8--8--8--8--8-|
 B|--8-----8--8--8--8--8--8--8--8--8--8--8--8--8--8-|
  |
  |GTR II
c#|-------------------------------------------------|
G#|--------------3-----------------------3----------|
 E|-------------------------------------------------|
 B|-----------0-----------------------0-------------|
F#|-------------------------------------------------|
 B|-------------------------------------------------|

   GTR I
c#|-------------------------------------------------|
G#|-------------------------------------------------|
 E|-------------------------------------------------|
 B|--5-----5--5--5--5--5--5--5--5--5--5--5--5--5--5-|
F#|--5-----5--5--5--5--5--5--5--5--5--5--5--5--5--5-|
 B|--5-----5--5--5--5--5--5--5--5--5--5--5--5--5--5-|
  |
  |GTR II
c#|-------------------------------------------------|
G#|--------------3-----------------------3----------|
 E|-------------------------------------------------|
 B|-----------0-----------------------0-------------|
F#|-------------------------------------------------|
 B|-------------------------------------------------|

   GTR I
c#|-------------------------------------------------|
G#|-------------------------------------------------|
 E|-------------------------------------------------|
 B|--8-----8--8--8--8--8--8--8--8--8--8--8--8--8--8-|
F#|--8-----8--8--8--8--8--8--8--8--8--8--8--8--8--8-|
 B|--8-----8--8--8--8--8--8--8--8--8--8--8--8--8--8-|
  |
  |GTR II
c#|-------------------------------------------------|
G#|--------------3-----------------------3----------|
 E|-------------------------------------------------|
 B|-----------0-----------------------0-------------|
F#|-------------------------------------------------|
 B|-------------------------------------------------|

   GTR I
c#|-------------------------------------------------|
G#|-------------------------------------------------|
 E|-------------------------------------------------|
 B|--5-----5--5--5--5--5--5--5--5--5--5--5--5--5--5-|
F#|--5-----5--5--5--5--5--5--5--5--5--5--5--5--5--5-|
 B|--5-----5--5--5--5--5--5--5--5--5--5--5--5--5--5-|
  |
  |GTR II
c#|-------------------------------------------------|
G#|--------------3-----------------------3----------|
 E|-------------------------------------------------|
 B|-----------0-----------------------0-------------|
F#|-------------------------------------------------|
 B|-------------------------------------------------|

   GTR I
c#|-------------------------------------------------|
G#|-------------------------------------------------|
 E|-------------------------------------------------|
 B|--8-----8--8--8--8--8--8--8--8--8--8--8--8--8--8-|
F#|--8-----8--8--8--8--8--8--8--8--8--8--8--8--8--8-|
 B|--8-----8--8--8--8--8--8--8--8--8--8--8--8--8--8-|
  |
  |GTR II
c#|-------------------------------------------------|
G#|--------------3-----------------------3----------|
 E|-------------------------------------------------|
 B|-----------0-----------------------0-------------|
F#|-------------------------------------------------|
 B|-------------------------------------------------|

   GTR I
c#|-------------------------------------------------|
G#|-------------------------------------------------|
 E|-------------------------------------------------|
 B|--5-----5--5--5--5--5--5--5--5--5--5--5--5--5--5-|
F#|--5-----5--5--5--5--5--5--5--5--5--5--5--5--5--5-|
 B|--5-----5--5--5--5--5--5--5--5--5--5--5--5--5--5-|
  |
  |GTR II
c#|-------------------------------------------------|
G#|--------------3-----------------------3----------|
 E|-------------------------------------------------|
 B|-----------0-----------------------0-------------|
F#|-------------------------------------------------|
 B|-------------------------------------------------|

   GTR I
c#|-------------------------------------------------|
G#|-------------------------------------------------|
 E|-------------------------------------------------|
 B|--8-----8--8--8--8--8--8--8--8--8--8--8--8--8--8-|
F#|--8-----8--8--8--8--8--8--8--8--8--8--8--8--8--8-|
 B|--8-----8--8--8--8--8--8--8--8--8--8--8--8--8--8-|
  |
  |GTR II
c#|-------------------------------------------------|
G#|--------------3-----------------------3----------|
 E|-------------------------------------------------|
 B|-----------0-----------------------0-------------|
F#|-------------------------------------------------|
 B|-------------------------------------------------|

   GTR I
c#|-------------------------------------------------|
G#|-------------------------------------------------|
 E|-------------------------------------------------|
 B|--5--5--5--5--5--5--5--5--5--5--5--5--5--5--5--5-|
F#|--5--5--5--5--5--5--5--5--5--5--5--5--5--5--5--5-|
 B|--5--5--5--5--5--5--5--5--5--5--5--5--5--5--5--5-|
  |
  |GTR II
c#|-------------------------------------------------|
G#|--------------3-----------------------3----------|
 E|-------------------------------------------------|
 B|-----------0-----------------------0-------------|
F#|-------------------------------------------------|
 B|-------------------------------------------------|

   GTR I
c#|-------------------------------------------------|
G#|-------------------------------------------------|
 E|-------------------------------------------------|
 B|--8-----8--8--8--8--8--8--8--8--8--8--8--8--8--8-|
F#|--8-----8--8--8--8--8--8--8--8--8--8--8--8--8--8-|
 B|--8-----8--8--8--8--8--8--8--8--8--8--8--8--8--8-|
  |
  |GTR II
c#|-------------------------------------------------|
G#|--------------3-----------------------3----------|
 E|-------------------------------------------------|
 B|-----------0-----------------------0-------------|
F#|-------------------------------------------------|
 B|-------------------------------------------------|

   GTR I
c#|-------------------------------------------------|
G#|-------------------------------------------------|
 E|-------------------------------------------------|
 B|--5-----5--5--5--5--5--5--5--5--5--5--5--5--5--5-|
F#|--5-----5--5--5--5--5--5--5--5--5--5--5--5--5--5-|
 B|--5-----5--5--5--5--5--5--5--5--5--5--5--5--5--5-|
  |
  |GTR II
c#|-------------------------------------------------|
G#|--------------3-----------------------3----------|
 E|-------------------------------------------------|
 B|-----------0-----------------------0-------------|
F#|-------------------------------------------------|
 B|-------------------------------------------------|

   GTR I
c#|-------------------------------------------------|
G#|-------------------------------------------------|
 E|-------------------------------------------------|
 B|--8-----8--8--8--8--8--8--8--8--8--8--8--8--8--8-|
F#|--8-----8--8--8--8--8--8--8--8--8--8--8--8--8--8-|
 B|--8-----8--8--8--8--8--8--8--8--8--8--8--8--8--8-|
  |
  |GTR II
c#|-------------------------------------------------|
G#|--------------3-----------------------3----------|
 E|-------------------------------------------------|
 B|-----------0-----------------------0-------------|
F#|-------------------------------------------------|
 B|-------------------------------------------------|

   GTR I
c#|-------------------------------------------------|
G#|-------------------------------------------------|
 E|-------------------------------------------------|
 B|--5-----5--5--5--5--5--5--5--5--5--5--5--5--5--5-|
F#|--5-----5--5--5--5--5--5--5--5--5--5--5--5--5--5-|
 B|--5-----5--5--5--5--5--5--5--5--5--5--5--5--5--5-|
  |
  |GTR II
c#|-------------------------------------------------|
G#|--------------3-----------------------3----------|
 E|-------------------------------------------------|
 B|-----------0-----------------------0-------------|
F#|-------------------------------------------------|
 B|-------------------------------------------------|

Intro - 1x

END

------------------------------------------------------------------------------
6. What You Deserve
   Words & Music by Tyler Connolly
------------------------------------------------------------------------------

GTR I - Drop B Tuning "Tyler Connolly" (c#,G#,E,B,F#,B)
GTR II - Drop B Tuning "Dave Brenner" (c#,G#,E,B,F#,B)

Intro

   GTR I
c#|-------------------------------------------------|
G#|-------------------------------------------------|
 E|-------------------------------------------------|
 B|-------------------------------------------------|
F#|--5--------3-----3--5-----------5-----3h-5-------|
 B|-----0--0--------------0-----0-----0--------3----|

   GTR I
c#|-------------------------------------------------|
G#|-------------------------------------------------|
 E|-------------------------------------------------|
 B|--------------------------------------------3~---|
F#|--5--------3-----3--5-------(5)(5)(5)-3h-5-------|
 B|-----0--0--------------0-------------------------|
  |
  |GTR II
c#|-------------------------------------------------|
G#|-------------------------------------------------|
 E|-------------------------------------------------|
 B|-----------------------------x--x--x--x--x--x--x-|
F#|-----------------------------x--x--x--x--x--x--x-|
 B|-----------------------------x--x--x--x--x--x--x-|

Main Riff

   GTR I,II
c#|-------------------------------------------------|
G#|-------------------------------------------------|
 E|-------------------------------------------------|
 B|-------------------------------------------------|
F#|--5--------3-----3--5-----------5-----3h-5-------|
 B|-----0--0--------------0-----0-----0--------3~---|

   GTR I,II
c#|-------------------------------------------------|
G#|-------------------------------------------------|
 E|-------------------------------------------------|
 B|-------------------------------------------------|
F#|--5--------3-----3--5----------------------------|
 B|-----0--0--------------0-------------------------|

   GTR I,II
c#|-------------------------------------------------|
G#|-------------------------------------------------|
 E|-------------------------------------------------|
 B|-------------------------------------------------|
F#|--5--------3-----3--5-----------5-----3h-5-------|
 B|-----0--0--------------0-----0-----0--------3~---|

   GTR I
c#|-------------------------------------------------|
G#|-------------------------------------------------|
 E|-------------------------------------------------|
 B|-------------------------------------------------|
F#|--5--------3-----3--5----------------------(5)(5)|
 B|-----0--0--------------0-------------------------|
  |
  |GTR II
c#|-------------------------------------------------|
G#|-------------------------------------------------|
 E|-------------------------------------------------|
 B|-------------------------------------------------|
F#|-------------------------------------------------|
 B|------------------------------------(12|12)------|

Verse

   GTR II
c#|-------------------------------------------------|
G#|-------------------------------------------------|
 E|-------------------------------------------------|
 B|-------------------------------------------------|
F#|--3--5--3--0--3--5--3--0--3--0-----0-----0-----0-|
 B|--3--5--3--0--3--5--3--0--3--0-----0-----0-----0-|
     .  .  .  .  .  .  .  .  .  .     .     .     .

   GTR II
c#|-------------------------------------------------|
G#|-------------------------------------------------|
 E|-------------------------------------------------|
 B|-------------------------------------------------|
F#|--3--5--3--0--3--5--3--0--3--0-----0-----0-----0-|
 B|--3--5--3--0--3--5--3--0--3--0-----0-----0-----0-|
     .  .  .  .  .  .  .  .  .  .     .     .     .

   GTR II
c#|-------------------------------------------------|
G#|-------------------------------------------------|
 E|-------------------------------------------------|
 B|-------------------------------------------------|
F#|--3--5--3--0--3--5--3--0--3--0-----0-----0-----0-|
 B|--3--5--3--0--3--5--3--0--3--0-----0-----0-----0-|
     .  .  .  .  .  .  .  .  .  .     .     .     .

   GTR II
c#|-------------------------------------------------|
G#|-------------------------------------------------|
 E|-------------------------------------------------|
 B|-------------------------------------------------|
F#|--3--5--3--0--3--5--3--0--3--0-----0-----0-----0-|
 B|--3--5--3--0--3--5--3--0--3--0-----0-----0-----0-|
     .  .  .  .  .  .  .  .  .  .     .     .     .

Verse 2

   GTR I,II
c#|-------------------------------------------------|
G#|-------------------------------------------------|
 E|-------------------------------------------------|
 B|-10-11-12--0--3--5--3--0--3--0-----0-----0-----0-|
F#|-10-11-12--0--3--5--3--0--3--0-----0-----0-----0-|
 B|-10-11-12--0--3--5--3--0--3--0-----0-----0-----0-|

   GTR I,II
c#|-------------------------------------------------|
G#|-------------------------------------------------|
 E|-------------------------------------------------|
 B|--3--5--3--0--3--5--3--0--3--0-----0-----0-----0-|
F#|--3--5--3--0--3--5--3--0--3--0-----0-----0-----0-|
 B|--3--5--3--0--3--5--3--0--3--0-----0-----0-----0-|

   GTR I,II
c#|-------------------------------------------------|
G#|-------------------------------------------------|
 E|-------------------------------------------------|
 B|-10-11-12--0--3--5--3--0--3--0-----0-----0-----0-|
F#|-10-11-12--0--3--5--3--0--3--0-----0-----0-----0-|
 B|-10-11-12--0--3--5--3--0--3--0-----0-----0-----0-|

   GTR I,II
c#|-------------------------------------------------|
G#|-------------------------------------------------|
 E|-------------------------------------------------|
 B|--3--5--3--0--3--5--3--0--3--0-----0-----3-------|
F#|--3--5--3--0--3--5--3--0--3--0-----0-----3-------|
 B|--3--5--3--0--3--5--3--0--3--0-----0-----3-------|

Pre Chorus

   GTR I,II
c#|-------------------------------------------------|
G#|-------------------------------------------------|
 E|-------------------------------------------------|
 B|--8--8--8--8--8--8--8--8--8--8--8--8--8--8--8--8-|
F#|--8--8--8--8--8--8--8--8--8--8--8--8--8--8--8--8-|
 B|--8--8--8--8--8--8--8--8--8--8--8--8--8--8--8--8-|

   GTR I,II
c#|-------------------------------------------------|
G#|-------------------------------------------------|
 E|-------------------------------------------------|
 B|--3--5--3--0--3--5--3--0--3--0-----0-----3-------|
F#|--3--5--3--0--3--5--3--0--3--0-----0-----3-------|
 B|--3--5--3--0--3--5--3--0--3--0-----0-----3-------|

   GTR I,II
c#|-------------------------------------------------|
G#|-------------------------------------------------|
 E|-------------------------------------------------|
 B|--8--8--8--8--8--8--8--8--8--8--8--8--8--8--8--8-|
F#|--8--8--8--8--8--8--8--8--8--8--8--8--8--8--8--8-|
 B|--8--8--8--8--8--8--8--8--8--8--8--8--8--8--8--8-|

   GTR I,II
c#|-------------------------------------------------|
G#|-------------------------------------------------|
 E|-------------------------------------------------|
 B|-----------------------------------------3-------|
F#|--3--5--3--0--3--5--3--0--3--0-----0-----3-------|
 B|--3--5--3--0--3--5--3--0--3--0-----0-----3-------|
     .  .  .  .  .  .  .  .  .  .     .            

   GTR I,II
c#|-------------------------------------------------|
G#|-------------------------------------------------|
 E|-------------------------------------------------|
 B|--8--8--8--8--8--8--8--8--8--8--8--8--8--8--8--8-|
F#|--8--8--8--8--8--8--8--8--8--8--8--8--8--8--8--8-|
 B|--8--8--8--8--8--8--8--8--8--8--8--8--8--8--8--8-|

   GTR I,II
c#|-------------------------------------------------|
G#|-------------------------------------------------|
 E|-------------------------------------------------|
 B|--3--5--3--0--3--5--3--0--3--0-----0-----3-------|
F#|--3--5--3--0--3--5--3--0--3--0-----0-----3-------|
 B|--3--5--3--0--3--5--3--0--3--0-----0-----3-------|

   GTR I,II
c#|-------------------------------------------------|
G#|-------------------------------------------------|
 E|-------------------------------------------------|
 B|--8--8--8--8--8--8--8--8--8--8--8--8--8--8--8--8-|
F#|--8--8--8--8--8--8--8--8--8--8--8--8--8--8--8--8-|
 B|--8--8--8--8--8--8--8--8--8--8--8--8--8--8--8--8-|

   GTR I,II
c#|-------------------------------------------------|
G#|-------------------------------------------------|
 E|-------------------------------------------------|
 B|-10-10-10-10-10-10-10-10-10-10-10-10-10-10-10-10-|
F#|-10-10-10-10-10-10-10-10-10-10-10-10-10-10-10-10-|
 B|-10-10-10-10-10-10-10-10-10-10-10-10-10-10-10-10-|

Main Riff
Verse
Verse 2
Pre Chorus

Chorus

   GTR I,II
c#|-------------------------------------------------|
G#|-------------------------------------------------|
 E|-------------------------------------------------|
 B|-12-12-12-12-12-12-12-12-12-12-12-12-12-12-12-12-|
F#|-12-12-12-12-12-12-12-12-12-12-12-12-12-12-12-12-|
 B|-12-12-12-12-12-12-12-12-12-12-12-12-12-12-12-12-|

   GTR I,II
c#|-------------------------------------------------|
G#|-------------------------------------------------|
 E|-------------------------------------------------|
 B|-12-12-12-12-12-12-12-12-12-12-12-12-12-12-12-12-|
F#|-10-10-10-10-10-10-10-10-10-10-10-10-10-10-10-10-|
 B|-10-10-10-10-10-10-10-10-10-10-10-10-10-10-10-10-|

   GTR I,II
c#|-------------------------------------------------|
G#|-------------------------------------------------|
 E|-------------------------------------------------|
 B|-12-12-12-12-12-12-12-12-12-12-12-12-12-12-12-12-|
F#|--9--9--9--9--9--9--9--9--9--9--9--9--9--9--9--9-|
 B|--9--9--9--9--9--9--9--9--9--9--9--9--9--9--9--9-|

   GTR I,II
c#|-------------------------------------------------|
G#|-------------------------------------------------|
 E|-------------------------------------------------|
 B|-12-12-12-12-12-12-12-12-12-12-12-12-12-12-12-12-|
F#|--8--8--8--8--8--8--8--8--8--8--8--8--8--8--8--8-|
 B|--8--8--8--8--8--8--8--8--8--8--8--8--8--8--8--8-|

   GTR I,II
c#|-------------------------------------------------|
G#|-------------------------------------------------|
 E|-------------------------------------------------|
 B|-12-12-12-12-12-12-12-12-12-12-12-12-12-12-12-12-|
F#|-12-12-12-12-12-12-12-12-12-12-12-12-12-12-12-12-|
 B|-12-12-12-12-12-12-12-12-12-12-12-12-12-12-12-12-|

   GTR I,II
c#|-------------------------------------------------|
G#|-------------------------------------------------|
 E|-------------------------------------------------|
 B|-12-12-12-12-12-12-12-12-12-12-12-12-12-12-12-12-|
F#|-10-10-10-10-10-10-10-10-10-10-10-10-10-10-10-10-|
 B|-10-10-10-10-10-10-10-10-10-10-10-10-10-10-10-10-|

   GTR I,II
c#|-------------------------------------------------|
G#|-------------------------------------------------|
 E|-------------------------------------------------|
 B|-12-12-12-12-12-12-12-12-12-12-12-12-12-12-12-12-|
F#|--9--9--9--9--9--9--9--9--9--9--9--9--9--9--9--9-|
 B|--9--9--9--9--9--9--9--9--9--9--9--9--9--9--9--9-|

   GTR I,II
c#|-------------------------------------------------|
G#|-------------------------------------------------|
 E|-------------------------------------------------|
 B|-12-12-12-12-12-12-12-12-12-12-12-12-12-12-12-12-|
F#|--8--8--8--8--8--8--8--8--8--8--8--8--8--8--8--8-|
 B|--8--8--8--8--8--8--8--8--8--8--8--8--8--8--8--8-|

Post Chorus

   GTR I,II
c#|-------------------------------------------------|
G#|-------------------------------------------------|
 E|-------------------------------------------------|
 B|-------------------------------------------------|
F#|--5--------3-----3--5-----------5-----3h-5-------|
 B|-----0--0--------------0-----0-----0--------3~---|

   GTR I,II
c#|-------------------------------------------------|
G#|-------------------------------------------------|
 E|-------------------------------------------------|
 B|-------------------------------------------------|
F#|--5--------3-----3--5----------------------------|
 B|-----0--0--------------0-------------------------|

   GTR I,II
c#|-------------------------------------------------|
G#|-------------------------------------------------|
 E|-------------------------------------------------|
 B|-------------------------------------------------|
F#|--5--------3-----3--5-----------5-----3h-5-------|
 B|-----0--0--------------0-----0-----0--------3~---|

   GTR I
c#|-------------------------------------------------|
G#|--------------------------------5----------------|
 E|--------------------------------5----------------|
 B|--------------------------------3----------------|
F#|--5--------3-----3--5-----------3----------------|
 B|-----0--0--------------0--0--0--3----------------|
                             .  .

Bridge

   GTR II
c#|-------------------------------------------------|
G#|-------------------------------------------------|
 E|-------------------------------------------------|
 B|-------------------------------------------------|
F#|--3--5--3--0--3--5--3--0--3--0-----0-----0-----0-|
 B|--3--5--3--0--3--5--3--0--3--0-----0-----0-----0-|
     .  .  .  .  .  .  .  .  .  .     .     .     .

   GTR II
c#|-------------------------------------------------|
G#|-------------------------------------------------|
 E|-------------------------------------------------|
 B|-------------------------------------------------|
F#|--3--5--3--0--3--5--3--0--3--0-----0-----0-----0-|
 B|--3--5--3--0--3--5--3--0--3--0-----0-----0-----0-|
     .  .  .  .  .  .  .  .  .  .     .     .     .

   GTR II
c#|-------------------------------------------------|
G#|-------------------------------------------------|
 E|-------------------------------------------------|
 B|-------------------------------------------------|
F#|--3--5--3--0--3--5--3--0--3--0-----0-----0-----0-|
 B|--3--5--3--0--3--5--3--0--3--0-----0-----0-----0-|
     .  .  .  .  .  .  .  .  .  .     .     .     .

   GTR I
c#|-------------------------------------------------|
G#|-------------------------------------------------|
 E|-------------------------------------------------|
 B|-------------------------------------------------|
F#|--------------------------------------1/---------|
 B|--------------------------------------1/---------|
  |
  |GTR II
c#|-------------------------------------------------|
G#|-------------------------------------------------|
 E|-------------------------------------------------|
 B|-------------------------------------------------|
F#|--3--5--3--0--3--5--3--0--3--0-----0-----0-----0-|
 B|--3--5--3--0--3--5--3--0--3--0-----0-----0-----0-|
     .  .  .  .  .  .  .  .  .  .     .     .     .

Interlude

   GTR I,II
c#|-------------------------------------------------|
G#|-------------------------------------------------|
 E|-------------------------------------------------|
 B|-12-12-12-12-12-12-12-12-12-12-12-12-12-12-12-12-|
F#|-12-12-12-12-12-12-12-12-12-12-12-12-12-12-12-12-|
 B|-12-12-12-12-12-12-12-12-12-12-12-12-12-12-12-12-|
     .  .  .  .  .  .  .  .  .  .  .  .  .  .  .  .

   GTR I,II
c#|-------------------------------------------------|
G#|-------------------------------------------------|
 E|-------------------------------------------------|
 B|-12-12-12-12-12-12-12-12-12-12-12-12-12-12-12-12-|
F#|-10-10-10-10-10-10-10-10-10-10-10-10-10-10-10-10-|
 B|-10-10-10-10-10-10-10-10-10-10-10-10-10-10-10-10-|
     .  .  .  .  .  .  .  .  .  .  .  .  .  .  .  .


   GTR I,II
c#|-------------------------------------------------|
G#|-------------------------------------------------|
 E|-------------------------------------------------|
 B|-12-12-12-12-12-12-12-12-12-12-12-12-12-12-12-12-|
F#|--9--9--9--9--9--9--9--9--9--9--9--9--9--9--9--9-|
 B|--9--9--9--9--9--9--9--9--9--9--9--9--9--9--9--9-|
     .  .  .  .  .  .  .  .  .  .  .  .  .  .  .  .


   GTR I,II
c#|-------------------------------------------------|
G#|-------------------------------------------------|
 E|-------------------------------------------------|
 B|-12-12-12-12-12-12-12-12-12-12-12-12-12-12-12-12-|
F#|--8--8--8--8--8--8--8--8--8--8--8--8--8--8--8--8-|
 B|--8--8--8--8--8--8--8--8--8--8--8--8--8--8--8--8-|
     .  .  .  .  .  .  .  .  .  .  .  .  .  .  .  .


   GTR I,II
c#|-------------------------------------------------|
G#|-------------------------------------------------|
 E|-------------------------------------------------|
 B|-12-12-12-12-12-12-12-12-12-12-12-12-12-12-12-12-|
F#|-12-12-12-12-12-12-12-12-12-12-12-12-12-12-12-12-|
 B|-12-12-12-12-12-12-12-12-12-12-12-12-12-12-12-12-|
     .  .  .  .  .  .  .  .  .  .  .  .  .         


   GTR I,II
c#|-------------------------------------------------|
G#|-------------------------------------------------|
 E|-------------------------------------------------|
 B|-12-12-12-12-12-12-12-12-12-12-12-12-12-12-12-12-|
F#|-10-10-10-10-10-10-10-10-10-10-10-10-10-10-10-10-|
 B|-10-10-10-10-10-10-10-10-10-10-10-10-10-10-10-10-|
     .  .  .  .  .  .  .  .  .  .  .  .  .         


   GTR I,II
c#|-------------------------------------------------|
G#|-------------------------------------------------|
 E|-------------------------------------------------|
 B|-12-12-12-12-12-12-12-12-12-12-12-12-12-12-12-12-|
F#|--9--9--9--9--9--9--9--9--9--9--9--9--9--9--9--9-|
 B|--9--9--9--9--9--9--9--9--9--9--9--9--9--9--9--9-|
     .  .  .  .  .  .  .  .  .  .  .  .  .          


   GTR I,II
c#|-------------------------------------------------|
G#|-------------------------------------------------|
 E|-------------------------------------------------|
 B|-12-12-12-12-12-12-12-12-12-12-12-12-----3-------|
F#|--8--8--8--8--8--8--8--8--8--8--8--8--0--3-------|
 B|--8--8--8--8--8--8--8--8--8--8--8--8--0--3-------|
                                         .         

   GTR I,II
c#|-------------------------------------------------|
G#|-------------------------------------------------|
 E|-------------------------------------------------|
 B|--8--8--8--8--8--8--8--8--8--8--8--8-----3-------|
F#|--8--8--8--8--8--8--8--8--8--8--8--8--0--3-------|
 B|--8--8--8--8--8--8--8--8--8--8--8--8--0--3-------|
                                         .

   GTR I,II
c#|-------------------------------------------------|
G#|-------------------------------------------------|
 E|-------------------------------------------------|
 B|-10-10-10-10-10-10-10-10-10-10-10-10-10-10-10-10-|
F#|-10-10-10-10-10-10-10-10-10-10-10-10-10-10-10-10-|
 B|-10-10-10-10-10-10-10-10-10-10-10-10-10-10-10-10-|

Chorus

Outro

   GTR I
c#|-------------------------------------------------|
G#|-------------------------------------------------|
 E|-------------------------------------------------|
 B|-------------------------------------------------|
F#|--5--------3-----3--5-----------5-----3h-5-------|
 B|-----0--0--------------0-----0-----0--------3----|

   GTR I
c#|-------------------------------------------------|
G#|-------------------------------------------------|
 E|-------------------------------------------------|
 B|-----------------------------x--x--x--x--x--x--x-|
F#|--5--------3-----3--5----(5)-x--x--x--x--x--x--x-|
 B|-----0--0--------------0-----x--x--x--x--x--x--x-|

   GTR I
c#|-------------------------------------------------|
G#|-------------------------------------------------|
 E|-------------------------------------------------|
 B|--------------------------------------------3~---|
F#|--5--------3-----3--5-----------5-----3h-5-------|
 B|-----0--0--------------0-----0-----0-------------|
  |
  |GTR II
c#|-------------------------------------------------|
G#|-------------------------------------------------|
 E|-------------------------------------------------|
 B|-------------------------------------------------|
F#|--5--------3-----3--5-----------5-----3h-5-------|
 B|-----0--0--------------0-----0-----0--------3~---|

   GTR I,II
c#|-------------------------------------------------|
G#|--------------------------------5----------------|
 E|--------------------------------5----------------|
 B|--------------------------------3----------------|
F#|--5--------3-----3--5-----------3----------------|
 B|-----0--0--------------0--0--0--3----------------|
                             .  .

END

------------------------------------------------------------------------------
7. The Last Song
   Words & Music by Tyler Connolly and Chad Kroeger
------------------------------------------------------------------------------

GTR I - Drop B Tuning "Tyler Connolly" Electric (c#,G#,E,B,F#,B)
GTR II - Drop B Tuning "Dave Brenner" Electric (c#,G#,E,B,F#,B)
GTR III - Drop B Tuning "Tyler Connolly" Acoustic (c#,G#,E,B,F#,B)
GTR IV - Drop B Tuning "Dave Brenner" Acoustic (c#,G#,E,B,F#,B)

Intro

   GTR III
c#|-------------------------------------|-------------------------------------|
G#|--------3--------3--------5--------5-|--------8--------8-------10----------|
 E|-----------0-----------------0-------|-----------0-----------------0-------|
 B|-------------------------------------|-----------------------------------0-|
F#|--3-----------3-----3/-5--------5----|--5/-7--------7-----7/10-------10----|
 B|-------------------------------------|-------------------------------------|

   GTR III
c#|-------------------------------------|-------------------------------------|
G#|--------3--------3--------5--------5-|--------8--------8-------10----------|
 E|-----------0-----------------0-------|-----------0-----------------0-------|
 B|-------------------------------------|-----------------------------------0-|
F#|--3-----------3-----3/-5--------5----|--5/-7--------7-----7/10-------10----|
 B|-------------------------------------|-------------------------------------|

   GTR III
c#|-------------------------------------|-------------------------------------|
G#|--------3--------3--------5--------5-|--------8--------8--------7-----7/-8-|
 E|-----------0-----------------0-------|-----------0-------------------------|
 B|-------------------------------------|-----------------------------0-------|
F#|--3-----------3-----3/-5--------5----|--5/-7--------7-----7/-9-------------|
 B|-------------------------------------|-------------------------------------|
  |
  |GTR IV
c#|-15-------15-------15-------15-------|-14-------14-------14-------14-------|
G#|----19-------19-------19-------19----|----17-------17-------17-------17----|
 E|-------19-------19-------19-------19-|-------16-------16-------16-------16-|
 B|-------------------------------------|-------------------------------------|
F#|-------------------------------------|-------------------------------------|
 B|-------------------------------------|-------------------------------------|

   GTR II
c#|-------------------------------------|-------------------------------------|
G#|-------------------------------------|-------------------------------------|
 E|-------------------------------------|-------------------------------------|
 B|-------------------------------------|-------------------(5)(5)---(5)---(5)|
F#|-------------------------------------|-------------------------------------|
 B|-------------------------------------|-------------------------------------|
  |
  |GTR III
c#|-------------------------------------|-------------------------------------|
G#|--------3--------3--------3--------3-|--------5--------5--------5--------5-|
 E|-----------0-----------------0-------|-----------0-----------------0-------|
 B|-------------------------------------|-------------------------------------|
F#|--3-----------3-----3-----------3----|--3/-5--------5-----5-----------5----|
 B|-------------------------------------|-------------------------------------|
  |
  |GTR IV
c#|-15-------15-------15-------15-------|-15-------15-------------------------|
G#|----19-------19-------19-------19----|----19-------19----------------------|
 E|-------19-------19-------19-------19-|-------19-------19-------------------|
 B|-------------------------------------|-------------------------------------|
F#|-------------------------------------|-------------------------------------|
 B|-------------------------------------|-------------------------------------|

Main Riff

   GTR I,II
c#|-------------------------------------|-------------------------------------|
G#|-------------------------------------|--8-----------------8----------------|
 E|-------------------------------------|--7-----------------7----------------|
 B|--2-----------------2----------------|--5-----------------5-----5--5-------|
F#|--2-----------------2----------------|--5-----------------5-----5--5--4--5-|
 B|--2-----------------2----------------|--5-----------------5-----5--5--4--5-|
                                                                         .  .

   GTR I,II
c#|-------------------------------------|-------------------------------------|
G#|-------------------------------------|-------------------------------------|
 E|-------------------------------------|-------------------------------------|
 B|--2-----------------2----------------|--5--4-----4-----4--5--4-----4-----4-|
F#|--2-----------------2----------------|--5--4-----4-----4--5--4-----4-----4-|
 B|--2-----------------2----------------|--5--4-----4-----4--5--4-----4-----4-|
     
   GTR I,II
c#|-------------------------------------|-------------------------------------|
G#|-------------------------------------|--8-----------------8----------------|
 E|-------------------------------------|--7-----------------7----------------|
 B|--2-----------------2----------------|--5-----------------5----------------|
F#|--2-----------------2----------------|--5-----------------5----------------|
 B|--2-----------------2----------------|--5-----------------5-----7br---7br--|
                                                                             
   GTR I,II
c#|-------------------------------------|-------------------------------------|
G#|-------------------------------------|--8----------------------------------|
 E|-------------------------------------|--7----------------------------------|
 B|--2-----------------2----------------|--5----------------------------------|
F#|--2-----------------2----------------|--5----------------------------------|
 B|--2-----------------2----------------|--5----------------------------------|

Verse

   GTR III
c#|-------------------------------------|-------------------------------------|
G#|--------3--------3--------5--------5-|--------8--------8-------10----------|
 E|-----------0-----------------0-------|-----------0-----------------0-------|
 B|-------------------------------------|-----------------------------------0-|
F#|--3-----------3-----3/-5--------5----|--5/-7--------7-----7/10-------10----|
 B|-------------------------------------|-------------------------------------|

   GTR III
c#|-------------------------------------|-------------------------------------|
G#|--------3--------3--------5--------5-|--------8--------8-------10----------|
 E|-----------0-----------------0-------|-----------0-----------------0-------|
 B|-------------------------------------|-----------------------------------0-|
F#|--3-----------3-----3/-5--------5----|--5/-7--------7-----7/10-------10----|
 B|-------------------------------------|-------------------------------------|

   GTR III
c#|-------------------------------------|-------------------------------------|
G#|--------3--------3--------5--------5-|--------8--------8-------10----------|
 E|-----------0-----------------0-------|-----------0-----------------0-------|
 B|-------------------------------------|-----------------------------------0-|
F#|--3-----------3-----3/-5--------5----|--5/-7--------7-----7/10-------10----|
 B|-------------------------------------|-------------------------------------|

   GTR III
c#|-------------------------------------|-------------------------------------|
G#|--------3--------3--------5--------5-|--------8--------8-------10----------|
 E|-----------0-----------------0-------|-----------0-----------------0-------|
 B|-------------------------------------|-----------------------------------0-|
F#|--3-----------3-----3/-5--------5----|--5/-7--------7-----7/10-------10----|
 B|-------------------------------------|-------------------------------------|

   GTR III
c#|-------------------------------------|-------------------------------------|
G#|--------3--------3--------5--------5-|--------8--------8-------10----------|
 E|-----------0-----------------0-------|-----------0-----------------0-------|
 B|-------------------------------------|-----------------------------------0-|
F#|--3-----------3-----3/-5--------5----|--5/-7--------7-----7/10-------10----|
 B|-------------------------------------|-------------------------------------|

   GTR III
c#|-------------------------------------|-------------------------------------|
G#|--------3--------3--------5--------5-|--------8--------8-------10----------|
 E|-----------0-----------------0-------|-----------0-----------------0-------|
 B|-------------------------------------|-----------------------------------0-|
F#|--3-----------3-----3/-5--------5----|--5/-7--------7-----7/10-------10----|
 B|-------------------------------------|-------------------------------------|

   GTR III
c#|-------------------------------------|-------------------------------------|
G#|--------3--------3--------5--------5-|--------7--------7--------7----------|
 E|-----------0-----------------0-------|-----------0-----------------0-----9-|
 B|-------------------------------------|--------------------------------0----|
F#|--3-----------3-----3/-5--------5----|--5/-7--------7-----7/-9-------------|
 B|-------------------------------------|-------------------------------------|

   GTR II
c#|-------------------------------------|-------------------------------------|
G#|-------------------------------------|-------------------------------------|
 E|-------------------------------------|-------------------------------------|
 B|-------------------------------------|-------------------(5)(5)---(5)---(5)|
F#|-------------------------------------|-------------------------------------|
 B|-------------------------------------|-------------------------------------|
  |
  |GTR III
c#|-------------------------------------|-------------------------------------|
G#|--------3--------3--------3--------3-|--------5--------5--------5--------5-|
 E|-----------0-----------------0-------|-----------0-----------------0-------|
 B|-------------------------------------|-------------------------------------|
F#|--3-----------3-----3-----------3----|--3/-5--------5-----5-----------5----|
 B|-------------------------------------|-------------------------------------|

Chorus

   GTR I,II
c#|-------------------------------------|-------------------------------------|
G#|-------------------------------------|--8-----------------8-----8--8-------|
 E|-------------------------------------|--7-----------------7-----7--7-------|
 B|--2-----------------2----------------|--5-----------------5-----5--5-------|
F#|--2-----------------2----------------|--5-----------------5-----5--5-------|
 B|--2-----------------2----------------|--5-----------------5-----5--5-------|
                                                                              

   GTR I,II
c#|-------------------------------------|-------------------------------------|
G#|-------------------------------------|-----8-----8--8--8-----8-----8--8--8-|
 E|-------------------------------------|-----7-----7--7--7-----7-----7--7--7-|
 B|--2-----------------2----------------|-----5-----5--5--5-----5-----5--5--5-|
F#|--2-----------------2----------------|-----5-----5--5--5-----5-----5--5--5-|
 B|--2-----------------2----------------|-----5-----5--5--5-----5-----5--5--5-|
     
   GTR I,II
c#|-------------------------------------|-------------------------------------|
G#|-------------------------------------|--8-----------------8----------------|
 E|-------------------------------------|--7-----------------7----------------|
 B|--2-----------------2----------------|--5-----------------5----------------|
F#|--2-----------------2----------------|--5-----------------5----------------|
 B|--2-----------------2----------------|--5-----------------5-----7br---7br--|
                                                                             
   GTR I,II
c#|-------------------------------------|-------------------------------------|
G#|-------------------------------------|--8----------------------------------|
 E|-------------------------------------|--7----------------------------------|
 B|--2-----------------2----------------|--5----------------------------------|
F#|--2-----------------2----------------|--5----------------------------------|
 B|--2-----------------2----------------|--5----------------------------------|

Verse 2

   GTR I,III
c#|-------------------------------------|-------------------------------------|
G#|--------3--------3--------5--------5-|--------8--------8-------10----------|
 E|-----------0-----------------0-------|-----------0-----------------0-------|
 B|-------------------------------------|-----------------------------------0-|
F#|--3-----------3-----3/-5--------5----|--5/-7--------7-----7/10-------10----|
 B|-------------------------------------|-------------------------------------|

   GTR I,III
c#|-------------------------------------|-------------------------------------|
G#|--------3--------3--------5--------5-|--------8--------8-------10----------|
 E|-----------0-----------------0-------|-----------0-----------------0-------|
 B|-------------------------------------|-----------------------------------0-|
F#|--3-----------3-----3/-5--------5----|--5/-7--------7-----7/10-------10----|
 B|-------------------------------------|-------------------------------------|

   GTR I,III
c#|-------------------------------------|-------------------------------------|
G#|--------3--------3--------5--------5-|--------8--------8-------10----------|
 E|-----------0-----------------0-------|-----------0-----------------0-------|
 B|-------------------------------------|-----------------------------------0-|
F#|--3-----------3-----3/-5--------5----|--5/-7--------7-----7/10-------10----|
 B|-------------------------------------|-------------------------------------|

   GTR I,III
c#|-------------------------------------|-------------------------------------|
G#|--------3--------3--------5--------5-|--------8--------8-------10----------|
 E|-----------0-----------------0-------|-----------0-----------------0-------|
 B|-------------------------------------|-----------------------------------0-|
F#|--3-----------3-----3/-5--------5----|--5/-7--------7-----7/10-------10----|
 B|-------------------------------------|-------------------------------------|

   GTR I,III
c#|-------------------------------------|-------------------------------------|
G#|--------3--------3--------5--------5-|--------7--------7--------7----------|
 E|-----------0-----------------0-------|-----------0-----------------0-----9-|
 B|-------------------------------------|--------------------------------0----|
F#|--3-----------3-----3/-5--------5----|--5/-7--------7-----7/-9-------------|
 B|-------------------------------------|-------------------------------------|

   GTR II
c#|-------------------------------------|-------------------------------------|
G#|-------------------------------------|-------------------------------------|
 E|-------------------------------------|-------------------------------------|
 B|-------------------------------------|-------------------(5)(5)---(5)---(5)|
F#|-------------------------------------|-------------------------------------|
 B|-------------------------------------|-------------------------------------|
  |
  |GTR I,III
c#|-------------------------------------|-------------------------------------|
G#|--------3--------3--------3--------3-|--------5--------5--------5--------5-|
 E|-----------0-----------------0-------|-----------0-----------------0-------|
 B|-------------------------------------|-------------------------------------|
F#|--3-----------3-----3-----------3----|--3/-5--------5-----5-----------5----|
 B|-------------------------------------|-------------------------------------|

Chorus

Bridge

   GTR I,II
c#|-------------------------------------|-------------------------------------|
G#|-------------------------------------|-------------------------------------|
 E|-------------------------------------|-------------------------------------|
 B|--7-----------------7----------------|-10----------------10----------------|
F#|--7-----------------7----------------|-10----------------10----------------|
 B|--7-----------------7----------------|-10----------------10----------------|

   GTR I,II
c#|-------------------------------------|-------------------------------------|
G#|-------------------------------------|-------------------------------------|
 E|-------------------------------------|-------------------------------------|
 B|--7-----------------7----------------|-10----------------10----------------|
F#|--7-----------------7----------------|-10----------------10----------------|
 B|--7-----------------7----------------|-10----------------10----------------|

   GTR I,II
c#|-------------------------------------|-------------------------------------|
G#|-------------------------------------|-------------------------------------|
 E|-------------------------------------|-------------------------------------|
 B|--7-----------------7----------------|-10----------------10----------------|
F#|--7-----------------7----------------|-10----------------10----------------|
 B|--7-----------------7----------------|-10----------------10----------------|

Guitar Solo

   GTR I
c#|-------------------------------------|-------------------------------------|
G#|-----------------------------------8-|--7~----------------------------0--2-|
 E|-------------------------------------|-------------------------------------|
 B|-------------------------------------|-------------------------------------|
F#|-/7~---------------------------------|-------------------------------------|
 B|-------------------------------------|-------------------------------------|
  |
  |GTR II
c#|-------------------------------------|-------------------------------------|
G#|-------------------------------------|--8-----------------8----------------|
 E|-------------------------------------|--7-----------------7----------------|
 B|--2-----------------2----------------|--5-----------------5----------------|
F#|--2-----------------2----------------|--5-----------------5----------------|
 B|--2-----------------2----------------|--5-----------------5----------------|

   GTR I
c#|-------------------------------------|-------------------------------------|
G#|--5~-------------------------------8-|--7~----------------------2-----2----|
 E|-------------------------------------|-------------------------------------|
 B|-------------------------------------|-------------------------------------|
F#|-------------------------------------|-------------------------------------|
 B|-------------------------------------|-------------------------------------|
  |
  |GTR II
c#|-------------------------------------|-------------------------------------|
G#|-------------------------------------|--8-----------------8----------------|
 E|-------------------------------------|--7-----------------7----------------|
 B|--2-----------------2----------------|--5-----------------5----------------|
F#|--2-----------------2----------------|--5-----------------5----------------|
 B|--2-----------------2----------------|--5-----------------5-----7br---7br--|

   GTR I
c#|-------------------------------------|-------------------------------------|
G#|--5-----------------7----------------|--8----------------12----------------|
 E|-------------------------------------|-------------------------------------|
 B|-------------------------------------|-------------------------------------|
F#|-------------------------------------|-------------------------------------|
 B|-------------------------------------|-------------------------------------|
  |
  |GTR II
c#|-------------------------------------|-------------------------------------|
G#|-------------------------------------|--8-----------------8----------------|
 E|-------------------------------------|--7-----------------7----------------|
 B|--2-----------------2----------------|--5-----------------5----------------|
F#|--2-----------------2----------------|--5-----------------5----------------|
 B|--2-----------------2----------------|--5-----------------5----------------|

   GTR I
c#|-------------------------------------|-------------------|-------------------|
G#|--7--------------------------8-------|-10----------------|-------------------|
 E|-------------------------------------|-------------------|-------------------|
 B|-------------------------------------|-------------------|-------------------|
F#|-------------------------------------|-------------------|-------------------|
 B|-------------------------------------|-------------------|-------------------|
  |
  |GTR II
c#|-------------------------------------|-------------------|-------------------|
G#|-------------------------------------|-------------------|-------------------|
 E|-------------------------------------|--5----------------|-------------------|
 B|--2-----------------2----------------|--5----------------|-------------------|
F#|--2-----------------2----------------|--3----------------|-------------------|
 B|--2-----------------2----------------|-------------------|-------------------|

Interlude

   GTR I
c#|-------------------------------------|-------------------------------------|
G#|/12----------------------------------|-------------------------------------|
 E|-------------------------------------|-------------------------------------|
 B|-------------------------------------|-------------------------------------|
F#|-------------------------------------|-------------------------------------|
 B|-------------------------------------|-------------------------------------|
  |
  |GTR III
c#|-------------------------------------|-------------------------------------|
G#|--------3--------3--------5--------5-|--------8--------8-------10----------|
 E|-----------0-----------------0-------|-----------0-----------------0-------|
 B|-------------------------------------|-----------------------------------0-|
F#|--3-----------3-----3/-5--------5----|--5/-7--------7-----7/10-------10----|
 B|-------------------------------------|-------------------------------------|

   GTR III
c#|-------------------------------------|-------------------------------------|
G#|--------3--------3--------5--------5-|--------8--------8-------10----------|
 E|-----------0-----------------0-------|-----------0-----------------0-------|
 B|-------------------------------------|-----------------------------------0-|
F#|--3-----------3-----3/-5--------5----|--5/-7--------7-----7/10-------10----|
 B|-------------------------------------|-------------------------------------|

   GTR III
c#|-------------------------------------|-------------------------------------|
G#|--------3--------3--------5--------5-|--------8--------8-------10----------|
 E|-----------0-----------------0-------|-----------0-----------------0-------|
 B|-------------------------------------|-----------------------------------0-|
F#|--3-----------3-----3/-5--------5----|--5/-7--------7-----7/10-------10----|
 B|-------------------------------------|-------------------------------------|

   GTR III
c#|-------------------------------------|-------------------------------------|
G#|--------3--------3--------5--------5-|--------8--------8-------10----------|
 E|-----------0-----------------0-------|-----------0-----------------0-------|
 B|-------------------------------------|-----------------------------------0-|
F#|--3-----------3-----3/-5--------5----|--5/-7--------7-----7/10-------10----|
 B|-------------------------------------|-------------------------------------|

   GTR I,III
c#|-------------------------------------|-------------------------------------|
G#|--------3--------3--------5--------5-|--------7--------7--------7----------|
 E|-----------0-----------------0-------|-----------0-----------------0-----9-|
 B|-------------------------------------|--------------------------------0----|
F#|--3-----------3-----3/-5--------5----|--5/-7--------7-----7/-9-------------|
 B|-------------------------------------|-------------------------------------|

   GTR I,III
c#|-------------------------------------|-------------------------------------|
G#|--------3--------3--------3--------3-|--------5--------5--------5--------5-|
 E|-----------0-----------------0-------|-----------0-----------------0-------|
 B|-------------------------------------|-------------------------------------|
F#|--3-----------3-----3-----------3----|--3/-5--------5-----5-----------5----|
 B|-------------------------------------|-------------------------------------|

Chorus

Outro

   GTR I,II
c#|-------------------------------------|-------------------------------------|
G#|-------------------------------------|-----8-----8--8--8-----8-----8--8--8-|
 E|-------------------------------------|-----7-----7--7--7-----7-----7--7--7-|
 B|--2-----------------2----------------|-----5-----5--5--5-----5-----5--5--5-|
F#|--2-----------------2----------------|-----5-----5--5--5-----5-----5--5--5-|
 B|--2-----------------2----------------|-----5-----5--5--5-----5-----5--5--5-|

   GTR I,II
c#|-------------------------------------|-------------------------------------|
G#|-------------------------------------|-----8-----8--8--8-----8-----8--8--8-|
 E|-------------------------------------|-----7-----7--7--7-----7-----7--7--7-|
 B|--2-----------------2----------------|-----5-----5--5--5-----5-----5--5--5-|
F#|--2-----------------2----------------|-----5-----5--5--5-----5-----5--5--5-|
 B|--2-----------------2----------------|-----5-----5--5--5-----5-----5--5--5-|

   GTR I,II
c#|-------------------------------------|-------------------------------------|
G#|-------------------------------------|-----8-----8--8--8-----8-----8--8--8-|
 E|-------------------------------------|-----7-----7--7--7-----7-----7--7--7-|
 B|--2-----------------2----------------|-----5-----5--5--5-----5-----5--5--5-|
F#|--2-----------------2----------------|-----5-----5--5--5-----5-----5--5--5-|
 B|--2-----------------2----------------|-----5-----5--5--5-----5-----5--5--5-|

   GTR I,II
c#|-------------------------------------|-------------------------------------|
G#|-------------------------------------|-----8-----8--8--8-----8-----8--8--8-|
 E|-------------------------------------|-----7-----7--7--7-----7-----7--7--7-|
 B|--2-----------------2----------------|-----5-----5--5--5-----5-----5--5--5-|
F#|--2-----------------2----------------|-----5-----5--5--5-----5-----5--5--5-|
 B|--2-----------------2----------------|-----5-----5--5--5-----5-----5--5--5-|

   GTR I,II
c#|-------------------------------------|-------------------------------------|
G#|-------------------------------------|-------------------------------------|
 E|-------------------------------------|-------------------------------------|
 B|--2----------------------------------|-------------------------------------|
F#|--2----------------------------------|-------------------------------------|
 B|--2----------------------------------|-------------------------------------|

   GTR I
c#|-15----------------15----------------|-15----------------15----------------|
G#|-------19----------------19----------|-------19----------------19----------|
 E|-------------19----------------19----|-------------19----------------19----|
 B|-------------------------------------|-------------------------------------|
F#|-------------------------------------|-------------------------------------|
 B|-------------------------------------|-------------------------------------|

   GTR I
c#|-15----------------15----------------|-15----------------15----------------|
G#|-------19----------------19----------|-------19----------------19----------|
 E|-------------19----------------19----|-------------19----------------19----|
 B|-------------------------------------|-------------------------------------|
F#|-------------------------------------|-------------------------------------|
 B|-------------------------------------|-------------------------------------|

END

------------------------------------------------------------------------------
8. Say I'm Sorry
   Words & Music by Tyler Connolly and Chad Kroeger
------------------------------------------------------------------------------

GTR I - Drop B Tuning "Tyler Connolly" (c#,G#,E,B,F#,B)
GTR II - Drop B Tuning "Dave Brenner" (c#,G#,E,B,F#,B)
GTR III - Drop B Tuning "Fill" (c#,G#,E,B,F#,B)

Intro

   GTR II (w. light dist. and tremelo)
c#|-------------------------------------------------|
G#|--------------3--------3--------------3----------|
 E|-----------------4-------------------------------|
 B|--------4-----------4-----------4----------------|
F#|--2-----------------------0----------------------|
 B|-----------------------------------------0-------|

   GTR II
c#|-------------------------------------------------|
G#|-----------------------3--------------3----------|
 E|--------------4-----------------4--------------4-|
 B|--------4-----------4-----------------------4----|
F#|-------------------------------------------------|
 B|--2----------------------------------------------|

   GTR II
c#|-------------------------------------------------|
G#|--------------3--------3--------------3----------|
 E|-----------------4-------------------------------|
 B|--------4-----------4-----------4----------------|
F#|--2-----------------------0----------------------|
 B|-----------------------------------------0-------|

   GTR II
c#|-------------------------------------------------|
G#|--3----------------------------------------------|
 E|--4----------------------------------------------|
 B|--4----------------------------------------------|
F#|--x----------------------------------------------|
 B|--2----------------------------------------------|

Verse

   GTR II
c#|-------------------------------------------------|
G#|--------------3-----------------------3----------|
 E|-------------------------------------------------|
 B|--------4-----------------------4----------------|
F#|--2-----------------------0----------------------|
 B|-----------------------------------------0-------|

   GTR II
c#|-------------------------------------------------|
G#|-----------------------3-------------------------|
 E|--------------4-----------------------4----------|
 B|--------4-----------4-----------4----------------|
F#|-------------------------------------------------|
 B|--2----------------------------------------------|

   GTR II
c#|-------------------------------------------------|
G#|--------------3-----------------------3----------|
 E|-------------------------------------------------|
 B|--------4-----------------------4----------------|
F#|--2-----------------------0----------------------|
 B|-----------------------------------------0-------|

   GTR II
c#|-------------------------------------------------|
G#|-----------------------3-------------------------|
 E|--------------4-----------------------4--------4-|
 B|--------4-----------4-----------4-----------4----|
F#|-------------------------------------------------|
 B|--2----------------------------------------------|

Pre Chorus

   GTR II
c#|-------------------------------------------------|
G#|--------------3--------3--------------0--------0-|
 E|--------------------4-----------6----------------|
 B|--------4--------------------4--------------7----|
F#|--2-----------------------4----------------------|
 B|-------------------------------------------------|

   GTR I,II
c#|-------------------------------------------------|
G#|-------------------------------------------------|
 E|-------------------------------------------------|
 B|-------------------------------------------------|
F#|-------------------------------------------------|
 B|--2----------------------------------------------|

Chorus

   GTR II,III (Heavy Distortion)
c#|-------------------------------------------------|
G#|-------------------------------------------------|
 E|-------------------------------------------------|
 B|--5--5--5--5--5--5--5--5--9--9--9--9--9--9--9--9-|
F#|--5--5--5--5--5--5--5--5--9--9--9--9--9--9--9--9-|
 B|--5--5--5--5--5--5--5--5--9--9--9--9--9--9--9--9-|

   GTR II,III
c#|-------------------------------------------------|
G#|-------------------------------------------------|
 E|-------------------------------------------------|
 B|--7--7--7--7--7--7--7--7--7--7--7--7--x--0-------|
F#|--7--7--7--7--7--7--7--7--7--7--7--7--x--0-------|
 B|--7--7--7--7--7--7--7--7--7--7--7--7--x--0-------|

   GTR II,III
c#|-------------------------------------------------|
G#|-------------------------------------------------|
 E|-------------------------------------------------|
 B|--5--5--5--5--5--5--5--5--9--9--9--9--9--9--9--9-|
F#|--5--5--5--5--5--5--5--5--9--9--9--9--9--9--9--9-|
 B|--5--5--5--5--5--5--5--5--9--9--9--9--9--9--9--9-|

   GTR II,III
c#|-------------------------------------------------|
G#|-------------------------------------------------|
 E|-------------------------------------------------|
 B|--7--7--7--7--7--7--7--7--7--7--7--7--x--0-------|
F#|--7--7--7--7--7--7--7--7--7--7--7--7--x--0-------|
 B|--7--7--7--7--7--7--7--7--7--7--7--7--x--0-------|

   GTR I (Wah & Tremelo)
c#|--7/10-12-----------------7/10-12----------------|
G#|----------12----------------------12-------------|
 E|-------------------------------------------------|
 B|-------------------------------------------------|
F#|-------------------------------------------------|
 B|-------------------------------------------------|
  |
  |GTR II,III
c#|-------------------------------------------------|
G#|-------------------------------------------------|
 E|-------------------------------------------------|
 B|--5--5--5--5--5--5--5--5--9--9--9--9--9--9--9--9-|
F#|--5--5--5--5--5--5--5--5--9--9--9--9--9--9--9--9-|
 B|--5--5--5--5--5--5--5--5--9--9--9--9--9--9--9--9-|

   GTR I
c#|--7/10--9-----------------7/10--9----------------|
G#|----------10----------------------10-------------|
 E|-------------------------------------------------|
 B|-------------------------------------------------|
F#|-------------------------------------------------|
 B|-------------------------------------------------|
  |
  |GTR II,III
c#|-------------------------------------------------|
G#|-------------------------------------------------|
 E|-------------------------------------------------|
 B|--7--7--7--7--7--7--7--7--7--7--7--7--7--7--7--7-|
F#|--7--7--7--7--7--7--7--7--7--7--7--7--7--7--7--7-|
 B|--7--7--7--7--7--7--7--7--7--7--7--7--7--7--7--7-|

   GTR I
c#|--7/10-12-----------------7/10-12----------------|
G#|----------12----------------------12-------10/12-|
 E|-------------------------------------------------|
 B|-------------------------------------------------|
F#|-------------------------------------------------|
 B|-------------------------------------------------|
  |
  |GTR II,III
c#|-------------------------------------------------|
G#|-------------------------------------------------|
 E|-------------------------------------------------|
 B|--5--5--5--5--5--5--5--5--9--9--9--9--9--9--9--9-|
F#|--5--5--5--5--5--5--5--5--9--9--9--9--9--9--9--9-|
 B|--5--5--5--5--5--5--5--5--9--9--9--9--9--9--9--9-|

   GTR I
c#|-------------------------------------------------|
G#|-10----------------------------------------------|
 E|-------------------------------------------------|
 B|-------------------------------------------------|
F#|-------------------------------------------------|
 B|-------------------------------------------------|
  |
  |GTR II,III
c#|-------------------------------------------------|
G#|-------------------------------------------------|
 E|-------------------------------------------------|
 B|--7----------------------------------------------|
F#|--7----------------------------------------------|
 B|--7----------------------------------------------|

Post Chorus

   GTR I
c#|-------------------------------------------------|
G#|--------------7-----------5-----------3----------|
 E|--------------6-----------4-----------2----------|
 B|--------------4-----------2-----------0----------|
F#|-------------------------------------------------|
 B|-------------------------------------------------|
  |
  |GTR II
c#|-------------------------------------------------|
G#|--------------3-----------------------3----------|
 E|-------------------------------------------------|
 B|--------4-----------------------4----------------|
F#|--2-----------------------0----------------------|
 B|-------------------------------------------------|

   GTR II
c#|-------------------------------------------------|
G#|-------------------------------------------------|
 E|-------------------------------------------------|
 B|-------------------------------------------------|
F#|-------------------------------------------------|
 B|--2----------------------------------------------|

Verse

   GTR I
c#|-------------------------------------------------|
G#|-------------------------------------------------|
 E|--4----------------------------------------------|
 B|--4----------------------------------------------|
F#|--2----------------------------------------------|
 B|-------------------------------------------------|
  |
  |GTR II
c#|-------------------------------------------------|
G#|--------------3-----------------------3----------|
 E|-------------------------------------------------|
 B|--------4-----------------------4----------------|
F#|--2-----------------------0----------------------|
 B|-----------------------------------------0-------|

   GTR II
c#|-------------------------------------------------|
G#|-----------------------3--------------3----------|
 E|--------------4--------------------4-----4-----4-|
 B|--------4-----------4-----------4-----------4----|
F#|-------------------------------------------------|
 B|--2----------------------------------------------|

   GTR II
c#|-------------------------------------------------|
G#|--------------3-----------------------3----------|
 E|-------------------------------------------------|
 B|--------4-----------------------4----------------|
F#|--2-----------------------0----------------------|
 B|-----------------------------------------0-------|

   GTR I
c#|-------------------------------------------------|
G#|-------------------------------------------------|
 E|-------11-----9-----7-----6-----7-----9----------|
 B|--9-----------------------------------------7----|
F#|-------------------------------------------------|
 B|-------------------------------------------------|
  |
  |GTR II
c#|-------------------------------------------------|
G#|-----------------------3-------------------------|
 E|--------------4-----------------------4--------4-|
 B|--------4-----------4-----------4-----------4----|
F#|-------------------------------------------------|
 B|--2----------------------------------------------|

Pre Chorus

   GTR I
c#|-------------------------------------------------|
G#|-------------------------------------------------|
 E|-------------------------------------------------|
 B|--9----------------------------------------------|
F#|-------------------------------------------------|
 B|-------------------------------------------------|
  |
  |GTR II
c#|-------------------------------------------------|
G#|--------------3--------3--------------0--------0-|
 E|--------------------4-----------6----------------|
 B|--------4--------------------4--------------7----|
F#|--2-----------------------4----------------------|
 B|-------------------------------------------------|

   GTR I,II
c#|-------------------------------------------------|
G#|-------------------------------------------------|
 E|-------------------------------------------------|
 B|-------------------------------------------------|
F#|-------------------------------------------------|
 B|--2----------------------------------------------|

Chorus

   GTR II,III (Heavy Distortion)
c#|-------------------------------------------------|
G#|-------------------------------------------------|
 E|-------------------------------------------------|
 B|--5--5--5--5--5--5--5--5--9--9--9--9--9--9--9--9-|
F#|--5--5--5--5--5--5--5--5--9--9--9--9--9--9--9--9-|
 B|--5--5--5--5--5--5--5--5--9--9--9--9--9--9--9--9-|

   GTR II,III
c#|-------------------------------------------------|
G#|-------------------------------------------------|
 E|-------------------------------------------------|
 B|--7--7--7--7--7--7--7--7--7--7--7--7--x--0-------|
F#|--7--7--7--7--7--7--7--7--7--7--7--7--x--0-------|
 B|--7--7--7--7--7--7--7--7--7--7--7--7--x--0-------|

   GTR II,III
c#|-------------------------------------------------|
G#|-------------------------------------------------|
 E|-------------------------------------------------|
 B|--5--5--5--5--5--5--5--5--9--9--9--9--9--9--9--9-|
F#|--5--5--5--5--5--5--5--5--9--9--9--9--9--9--9--9-|
 B|--5--5--5--5--5--5--5--5--9--9--9--9--9--9--9--9-|

   GTR II,III
c#|-------------------------------------------------|
G#|-------------------------------------------------|
 E|-------------------------------------------------|
 B|--7--7--7--7--7--7--7--7--7--7--7--7--x--0-------|
F#|--7--7--7--7--7--7--7--7--7--7--7--7--x--0-------|
 B|--7--7--7--7--7--7--7--7--7--7--7--7--x--0-------|

   GTR I
c#|--7/10-12-----------------7/10-12----------------|
G#|----------12----------------------12-------------|
 E|-------------------------------------------------|
 B|-------------------------------------------------|
F#|-------------------------------------------------|
 B|-------------------------------------------------|
  |
  |GTR II,III
c#|-------------------------------------------------|
G#|-------------------------------------------------|
 E|-------------------------------------------------|
 B|--5--5--5--5--5--5--5--5--9--9--9--9--9--9--9--9-|
F#|--5--5--5--5--5--5--5--5--9--9--9--9--9--9--9--9-|
 B|--5--5--5--5--5--5--5--5--9--9--9--9--9--9--9--9-|

   GTR I
c#|--7/10--9-----------------7/10--9----------------|
G#|----------10----------------------10-------------|
 E|-------------------------------------------------|
 B|-------------------------------------------------|
F#|-------------------------------------------------|
 B|-------------------------------------------------|
  |
  |GTR II,III
c#|-------------------------------------------------|
G#|-------------------------------------------------|
 E|-------------------------------------------------|
 B|--7--7--7--7--7--7--7--7--7--7--7--7--7--7--7--7-|
F#|--7--7--7--7--7--7--7--7--7--7--7--7--7--7--7--7-|
 B|--7--7--7--7--7--7--7--7--7--7--7--7--7--7--7--7-|

   GTR I
c#|--7/10-12-----------------7/10-12----------------|
G#|----------12----------------------12-------10/12-|
 E|-------------------------------------------------|
 B|-------------------------------------------------|
F#|-------------------------------------------------|
 B|-------------------------------------------------|
  |
  |GTR II,III
c#|-------------------------------------------------|
G#|-------------------------------------------------|
 E|-------------------------------------------------|
 B|--5--5--5--5--5--5--5--5--9--9--9--9--9--9--9--9-|
F#|--5--5--5--5--5--5--5--5--9--9--9--9--9--9--9--9-|
 B|--5--5--5--5--5--5--5--5--9--9--9--9--9--9--9--9-|

   GTR I
c#|-------------------------------------------------|
G#|-10----------------------------------------------|
 E|-------------------------------------------------|
 B|-------------------------------------------------|
F#|-------------------------------------------------|
 B|-------------------------------------------------|
  |
  |GTR II,III
c#|-------------------------------------------------|
G#|-------------------------------------------------|
 E|-------------------------------------------------|
 B|--7--7--7--7--7--7--7--7--7--7--7--7--7--7--7--7-|
F#|--7--7--7--7--7--7--7--7--7--7--7--7--7--7--7--7-|
 B|--7--7--7--7--7--7--7--7--7--7--7--7--7--7--7--7-|

Bridge

   GTR I,III
c#|-------------------------------------------------|
G#|-------------------------------------------------|
 E|/14----------11-----------9-----------7----------|
 B|-------------------------------------------------|
F#|-------------------------------------------------|
 B|-------------------------------------------------|
  |
  |GTR II
c#|-------------------------------------------------|
G#|-------------------------------------------------|
 E|-------------------------------------------------|
 B|--9--9--9--9--9--9--9--9-11-11-11-11-11-11-11-11-|
F#|--9--9--9--9--9--9--9--9-11-11-11-11-11-11-11-11-|
 B|--9--9--9--9--9--9--9--9-11-11-11-11-11-11-11-11-|

   GTR I,III
c#|-------------------------------------------------|
G#|-------------------------------------------------|
 E|--6-----------7-----------9-----------9----------|
 B|-----------------------------------------7-------|
F#|-------------------------------------------------|
 B|-------------------------------------------------|
  |
  |GTR II
c#|-------------------------------------------------|
G#|-------------------------------------------------|
 E|-------------------------------------------------|
 B|-12-12-12-12-12-12-12-12-14-14-14-14-14--7-------|
F#|-12-12-12-12-12-12-12-12-14-14-14-14-14--7-------|
 B|-12-12-12-12-12-12-12-12-14-14-14-14-14--7-------|

   GTR I,III
c#|-------------------------------------------------|
G#|-------------------------------------------------|
 E|-------------------------------------------------|
 B|--9----------------------------------------------|
F#|-------------------------------------------------|
 B|-------------------------------------------------|
  |
  |GTR II
c#|-------------------------------------------------|
G#|-------------------------------------------------|
 E|-------------------------------------------------|
 B|--9--9--9--9--9--9--9--9-11-11-11-11-11-11-11-11-|
F#|--9--9--9--9--9--9--9--9-11-11-11-11-11-11-11-11-|
 B|--9--9--9--9--9--9--9--9-11-11-11-11-11-11-11-11-|

   GTR II
c#|-------------------------------------------------|
G#|-------------------------------------------------|
 E|-------------------------------------------------|
 B|-12-12-12-12-12-12-12-12-14-14-14-14-14--7-------|
F#|-12-12-12-12-12-12-12-12-14-14-14-14-14--7-------|
 B|-12-12-12-12-12-12-12-12-14-14-14-14-14--7-------|

   GTR II,III
c#|-------------------------------------------------|
G#|-------------------------------------------------|
 E|-------------------------------------------------|
 B|--9--9--------9--9-------11-11-------11-11-------|
F#|--9--9--9--9--9--9--9--9-11-11-11-11-11-11-11-11-|
 B|--9--9--9--9--9--9--9--9-11-11-11-11-11-11-11-11-|
           .  .        .  .        .  .        .  .

   GTR II,III
c#|-------------------------------------------------|
G#|-------------------------------------------------|
 E|-------------------------------------------------|
 B|-12-12-------12-12-12-12-14-14-14-14-14--7-------|
F#|-12-12-12-12-12-12-12-12-14-14-14-14-14--7-------|
 B|-12-12-12-12-12-12-12-12-14-14-14-14-14--7-------|
           .  .

   GTR II,III
c#|-------------------------------------------------|
G#|-------------------------------------------------|
 E|-------------------------------------------------|
 B|--9--9--------9--9-------11-11-------------------|
F#|--9--9--9--9--9--9--9--9-11-11-11-11-11-11-11-11-|
 B|--9--9--9--9--9--9--9--9-11-11-11-11-11-11-11-11-|
           .  .        .  .        .  .  .  .  .  .

   GTR II,III
c#|-------------------------------------------------|
G#|-------------------------------------------------|
 E|-------------------------------------------------|
 B|-------------------------------------------------|
 B|-14-14-14-14-14-14-14-14-14-14-14-14-14-14-14-14-|
 B|-14-14-14-14-14-14-14-14-14-14-14-14-14-14-14-14-|
     .  .  .  .  .  .  .  .  .  .  .  .  .         

   GTR II,III
    |----------------TRM-----------------|
c#|-------------------------------------------------|
G#|-------------------------------------------------|
 E|-------------------------------------------------|
 B|-------------------------------------------------|
 B|-14-14-14-14-14-14-14-14-14-14-14-14-14----------|
 B|-14-14-14-14-14-14-14-14-14-14-14-14-14----------|
     .  .  .  .  .  .  .  .  .  .  .  .  .         

Chorus 2

   GTR II,III (Heavy Distortion)
c#|-------------------------------------------------|
G#|-------------------------------------------------|
 E|-------------------------------------------------|
 B|--5--5--5--5--5--5--5--5--9--9--9--9--9--9--9--9-|
F#|--5--5--5--5--5--5--5--5--9--9--9--9--9--9--9--9-|
 B|--5--5--5--5--5--5--5--5--9--9--9--9--9--9--9--9-|

   GTR II,III
c#|-------------------------------------------------|
G#|-------------------------------------------------|
 E|-------------------------------------------------|
 B|--7--7--7--7--7--7--7--7--7--7--7--7--x--0-------|
F#|--7--7--7--7--7--7--7--7--7--7--7--7--x--0-------|
 B|--7--7--7--7--7--7--7--7--7--7--7--7--x--0-------|

   GTR II,III
c#|-------------------------------------------------|
G#|-------------------------------------------------|
 E|-------------------------------------------------|
 B|--5--5--5--5--5--5--5--5--9--9--9--9--9--9--9--9-|
F#|--5--5--5--5--5--5--5--5--9--9--9--9--9--9--9--9-|
 B|--5--5--5--5--5--5--5--5--9--9--9--9--9--9--9--9-|

   GTR II,III
c#|-------------------------------------------------|
G#|-------------------------------------------------|
 E|-------------------------------------------------|
 B|--7--7--7--7--7--7--7--7--7--7--7--7--x--0-------|
F#|--7--7--7--7--7--7--7--7--7--7--7--7--x--0-------|
 B|--7--7--7--7--7--7--7--7--7--7--7--7--x--0-------|

   GTR II,III
c#|-------------------------------------------------|
G#|-------------------------------------------------|
 E|-------------------------------------------------|
 B|--5--5--5--5--5--5--5--5--9--9--9--9--9--9--9--9-|
F#|--5--5--5--5--5--5--5--5--9--9--9--9--9--9--9--9-|
 B|--5--5--5--5--5--5--5--5--9--9--9--9--9--9--9--9-|

   GTR II,III
c#|-------------------------------------------------|
G#|-------------------------------------------------|
 E|-------------------------------------------------|
 B|--7--7--7--7--7--7--7--7--7--7--7--7--7--7--7--7-|
F#|--7--7--7--7--7--7--7--7--7--7--7--7--7--7--7--7-|
 B|--7--7--7--7--7--7--7--7--7--7--7--7--7--7--7--7-|

   GTR I
c#|--7/10-12-----------------7/10-12----------------|
G#|----------12----------------------12-------------|
 E|-------------------------------------------------|
 B|-------------------------------------------------|
F#|-------------------------------------------------|
 B|-------------------------------------------------|
  |
  |GTR II,III
c#|-------------------------------------------------|
G#|-------------------------------------------------|
 E|-------------------------------------------------|
 B|--5--5--5--5--5--5--5--5--9--9--9--9--9--9--9--9-|
F#|--5--5--5--5--5--5--5--5--9--9--9--9--9--9--9--9-|
 B|--5--5--5--5--5--5--5--5--9--9--9--9--9--9--9--9-|

   GTR I
c#|--7/10--9-----------------7/10--9----------------|
G#|----------10----------------------10-------------|
 E|-------------------------------------------------|
 B|-------------------------------------------------|
F#|-------------------------------------------------|
 B|-------------------------------------------------|
  |
  |GTR II,III
c#|-------------------------------------------------|
G#|-------------------------------------------------|
 E|-------------------------------------------------|
 B|--7--7--7--7--7--7--7--7--7--7--7--7--7--7--7--7-|
F#|--7--7--7--7--7--7--7--7--7--7--7--7--7--7--7--7-|
 B|--7--7--7--7--7--7--7--7--7--7--7--7--7--7--7--7-|

   GTR I
c#|--7/10-12-----------------7/10-12----------------|
G#|----------12----------------------12-------------|
 E|-------------------------------------------------|
 B|-------------------------------------------------|
F#|-------------------------------------------------|
 B|-------------------------------------------------|
  |
  |GTR II,III
c#|-------------------------------------------------|
G#|-------------------------------------------------|
 E|-------------------------------------------------|
 B|--5--5--5--5--5--5--5--5--9--9--9--9--9--9--9--9-|
F#|--5--5--5--5--5--5--5--5--9--9--9--9--9--9--9--9-|
 B|--5--5--5--5--5--5--5--5--9--9--9--9--9--9--9--9-|

   GTR I
c#|--7/10--9-----------------7/10--9----------------|
G#|----------10----------------------10-------------|
 E|-------------------------------------------------|
 B|-------------------------------------------------|
F#|-------------------------------------------------|
 B|-------------------------------------------------|
  |
  |GTR II,III
c#|-------------------------------------------------|
G#|-------------------------------------------------|
 E|-------------------------------------------------|
 B|--7--7--7--7--7--7--7--7--7--7--7--7--7--7--7--7-|
F#|--7--7--7--7--7--7--7--7--7--7--7--7--7--7--7--7-|
 B|--7--7--7--7--7--7--7--7--7--7--7--7--7--7--7--7-|

   GTR I
c#|--7/10-12-----------------7/10-12----------------|
G#|----------12----------------------12-------10/12-|
 E|-------------------------------------------------|
 B|-------------------------------------------------|
F#|-------------------------------------------------|
 B|-------------------------------------------------|
  |
  |GTR II,III
c#|-------------------------------------------------|
G#|-------------------------------------------------|
 E|-------------------------------------------------|
 B|--5--5--5--5--5--5--5--5--9--9--9--9--9--9--9--9-|
F#|--5--5--5--5--5--5--5--5--9--9--9--9--9--9--9--9-|
 B|--5--5--5--5--5--5--5--5--9--9--9--9--9--9--9--9-|

   GTR I
c#|-------------------------------------------------|
G#|-10----------------------------------------------|
 E|-------------------------------------------------|
 B|-------------------------------------------------|
F#|-------------------------------------------------|
 B|-------------------------------------------------|
  |
  |GTR II,III
c#|-------------------------------------------------|
G#|-------------------------------------------------|
 E|-------------------------------------------------|
 B|--7----------------------------------------------|
F#|--7----------------------------------------------|
 B|--7----------------------------------------------|

END

------------------------------------------------------------------------------
9. Any Other Way
   Words & Music by Tyler Connolly
------------------------------------------------------------------------------

GTR I - Drop B Tuning Electric "Tyler Connolly" (c#,G#,E,B,F#,B)
GTR II - Drop B Tuning Electric "Dave Brenner" (c#,G#,E,B,F#,B)
GTR III - Drop B Tuning Acoustic "Tyler Connolly" (c#,G#,E,B,F#,B)

Intro

   GTR I
c#|-------------------------------------------------|
G#|-------------------------------------------------|
 E|-------------------------------------------------|
 B|-------------------------------------------------|
F#|--------------9----------------------------------|
 B|--0--0--9-10----10--9--0-------------------------|

   GTR I
c#|-------------------------------------------------|
G#|-------------------------------------------------|
 E|-------------------------------------------------|
 B|-------------------------------------------------|
F#|--------------9----------------------------------|
 B|--0--0--9-10----10--9--0-----------------6~------|

   GTR I
c#|-------------------------------------------------|
G#|-------------------------------------------------|
 E|-------------------------------------------------|
 B|-------------------------------------------------|
F#|--------------9----------------------------------|
 B|--0--0--9-10----10--9--0-------------------------|

   GTR I
c#|-------------------------------------------------|
G#|-------------------------------------------------|
 E|-------------------------------------------------|
 B|-----------------------------------------3-------|
F#|--------------9--------------------------3-------|
 B|--0--0--9-10----10--9--0-----------------3-------|
  |
  |GTR II
c#|-------------------------------------------------|
G#|-------------------------------------------------|
 E|-------------------------------------------------|
 B|-----------------------------------------3-------|
F#|-----------------------------------------3-------|
 B|-----------------------------------------3-------|

Main Riff

   GTR I,II
c#|-------------------------------------------------|
G#|-------------------------------------------------|
 E|-------------------------------------------------|
 B|--0--0-----------------0-----------------6-------|
F#|--0--0--------9--------0--0--0--0--0--0--6-------|
 B|--0--0--9-10----10--9--0--0--0--0--0--0--6-------|
           .  .     .  .     .  .  .  .  .
   GTR I
c#|-------------------------------------------------|
G#|-------------------------------------------------|
 E|-------------------------------------------------|
 B|--0--0-----------------0-------10\-7-10/12~------|
F#|--0--0--------9--------0-------------------------|
 B|--0--0--9-10----10--9--0-------------------------|
  |        .  .     .  .
  |GTR II
c#|-------------------------------------------------|
G#|-------------------------------------------------|
 E|-------------------------------------------------|
 B|--0--0-----------------0-----------------3-------|
F#|--0--0--------9--------0--0--0--5--0--3--3-------|
 B|--0--0--9-10----10--9--0--0--0--5--0--3--3-------|
           .  .     .  .     .  .  .  .  .

   GTR I,II
c#|-------------------------------------------------|
G#|-------------------------------------------------|
 E|-------------------------------------------------|
 B|--0--0-----------------0-----------------6-------|
F#|--0--0--------9--------0--0--0--0--0--0--6-------|
 B|--0--0--9-10----10--9--0--0--0--0--0--0--6-------|
           .  .     .  .     .  .  .  .  .
   GTR I
c#|-------------------------------------------------|
G#|-------------------------------------------------|
 E|-------------------------------------------------|
 B|--0--0-----------------0--------9/10--9\-7~------|
F#|--0--0--------9--------0-------------------------|
 B|--0--0--9-10----10--9--0-------------------------|
  |        .  .     .  .
  |GTR II
c#|-------------------------------------------------|
G#|-------------------------------------------------|
 E|-------------------------------------------------|
 B|--0--0-----------------0--------5b---r5--3-------|
F#|--0--0--------9--------0--0--0--5b---r5--3-------|
 B|--0--0--9-10----10--9--0--0--0--5b---r5--3-------|
           .  .     .  .     .  .         

Verse

   GTR II
c#|-------------------------------------------------|
G#|-------------------------------------------------|
 E|-------------------------------------------------|
 B|-------------------------------------------------|
F#|--0--0--------9--------0--------0-----0----------|
 B|--0--0--9-10----10--9--0--------0-----0--6~------|
     .  .  .  .  .  .  .  .        .     .

   GTR II
c#|-------------------------------------------------|
G#|-------------------------------------------------|
 E|-------------------------------------------------|
 B|-------------------------------------------------|
F#|--0--0--------9--------0-----0--5--0--3----------|
 B|--0--0--9-10----10--9--0-----0--5--0--3--3~------|
     .  .  .  .  .  .  .  .     .  .  .  .

   GTR II
c#|-------------------------------------------------|
G#|-------------------------------------------------|
 E|-------------------------------------------------|
 B|-------------------------------------------------|
F#|--0--0--------9--------0--------0-----0----------|
 B|--0--0--9-10----10--9--0--------0-----0--6~------|
     .  .  .  .  .  .  .  .        .     .

   GTR I
c#|-------------------------------------------------|
G#|-------------------------------------------------|
 E|-------------------------------------------------|
 B|--------------------------------9/10--9\-7~------|
F#|-------------------------------------------------|
 B|-------------------------------------------------|
  |                       
  |GTR II
c#|-------------------------------------------------|
G#|-------------------------------------------------|
 E|-------------------------------------------------|
 B|-------------------------------------------------|
F#|--0--0--------9--------0-----0-------------------|
 B|--0--0--9-10----10--9--0-----0--5b---r5--3~------|
     .  .  .  .  .  .  .  .        .     .

Verse 2

   GTR I,II
c#|-------------------------------------------------|
G#|-------------------------------------------------|
 E|-------------------------------------------------|
 B|-----------------------------------------3-------|
F#|--0--0--------9--------0--0--0--5--0--3--3-------|
 B|--0--0--9-10----10--9--0--0--0--5--0--3--3-------|
     .  .  .  .     .  .  .  .  .  .  .  .

   GTR I,II
c#|-------------------------------------------------|
G#|-------------------------------------------------|
 E|-------------------------------------------------|
 B|-----------------------------------------3-------|
F#|--0--0--------9--------0--0--0--5--0--3--3-------|
 B|--0--0--9-10----10--9--0--0--0--5--0--3--3-------|
     .  .  .  .     .  .  .  .  .  .  .  .

   GTR I,II
c#|-------------------------------------------------|
G#|-------------------------------------------------|
 E|-------------------------------------------------|
 B|-----------------------------------------3-------|
F#|--0--0--------9--------0--0--0--5--0--3--3-------|
 B|--0--0--9-10----10--9--0--0--0--5--0--3--3-------|
     .  .  .  .     .  .  .  .  .  .  .  .

   GTR I,II
c#|-------------------------------------------------|
G#|-------------------------------------------------|
 E|-------------------------------------------------|
 B|--------------------------------5--------3-------|
F#|--0--0--------9--------0--0--0--5--------3-------|
 B|--0--0--9-10----10--9--0--0--0--5--------3-------|
     .  .  .  .     .  .  .  .  .         

Pre Chorus

   GTR I,II
c#|-------------------------------------------------|
G#|-------------------------------------------------|
 E|-------------------------------------------------|
 B|--5-----5-----5-----5-----5-----5-----5-----5----|
F#|--5-----5-----5-----5-----5-----5-----5-----5----|
 B|--5-----5-----5-----5-----5-----5-----5-----5----|

   GTR I,II
c#|-------------------------------------------------|
G#|-------------------------------------------------|
 E|-------------------------------------------------|
 B|--3-----3-----3-----3-----3-----3-----3-----3----|
F#|--3-----3-----3-----3-----3-----3-----3-----3----|
 B|--3-----3-----3-----3-----3-----3-----3-----3----|

   GTR I,II
c#|-------------------------------------------------|
G#|-------------------------------------------------|
 E|-------------------------------------------------|
 B|--5-----5-----5-----5-----5-----5-----5-----5----|
F#|--5-----5-----5-----5-----5-----5-----5-----5----|
 B|--5-----5-----5-----5-----5-----5-----5-----5----|

   GTR I,II
c#|-------------------------------------------------|
G#|-------------------------------------------------|
 E|-------------------------------------------------|
 B|--3-----3-----3-----3-----3-----3-----3-----3----|
F#|--3-----3-----3-----3-----3-----3-----3-----3----|
 B|--3-----3-----3-----3-----3-----3-----3-----3----|

Main Riff
Verse
Verse 2
Pre Chorus

Chorus

   GTR I,II
c#|-------------------------------------------------|
G#|--3-----3-----3-----3-----3-----3-----3-----3----|
 E|--2-----2-----2-----2-----2-----2-----2-----2----|
 B|--0-----0-----0-----0-----0-----0-----0-----0----|
F#|--0-----0-----0-----0-----0-----0-----0-----0----|
 B|--0-----0-----0-----0-----0-----0-----0-----0----|

   GTR I,II
c#|-------------------------------------------------|
G#|-------------------------------------------------|
 E|-------------------------------------------------|
 B|--3-----3-----3-----3-----3-----3-----3-----2----|
F#|--3-----3-----3-----3-----3-----3-----3-----2----|
 B|--3-----3-----3-----3-----3-----3-----3-----2----|

   GTR I,II
c#|-------------------------------------------------|
G#|--3-----3-----3-----3-----3-----3-----3-----3----|
 E|--2-----2-----2-----2-----2-----2-----2-----2----|
 B|--0-----0-----0-----0-----0-----0-----0-----0----|
F#|--0-----0-----0-----0-----0-----0-----0-----0----|
 B|--0-----0-----0-----0-----0-----0-----0-----0----|

   GTR I,II
c#|-------------------------------------------------|
G#|-------------------------------------------------|
 E|-------------------------------------------------|
 B|--3-----3-----3-----3-----3-----3-----3--5-------|
F#|--3-----3-----3-----3-----3-----3-----3--5-------|
 B|--3-----3-----3-----3-----3-----3-----3--5-------|

   GTR I,II
c#|-------------------------------------------------|
G#|--3-----3-----3-----3-----3-----3-----3-----3----|
 E|--2-----2-----2-----2-----2-----2-----2-----2----|
 B|--0-----0-----0-----0-----0-----0-----0-----0----|
F#|--0-----0-----0-----0-----0-----0-----0-----0----|
 B|--0-----0-----0-----0-----0-----0-----0-----0----|

   GTR I,II
c#|-------------------------------------------------|
G#|-------------------------------------------------|
 E|-------------------------------------------------|
 B|--3-----3-----3-----3-----3-----3-----3-----2----|
F#|--3-----3-----3-----3-----3-----3-----3-----2----|
 B|--3-----3-----3-----3-----3-----3-----3-----2----|

   GTR I,II
c#|-------------------------------------------------|
G#|--3-----3-----3-----3-----3-----3-----3-----3----|
 E|--2-----2-----2-----2-----2-----2-----2-----2----|
 B|--0-----0-----0-----0-----0-----0-----0-----0----|
F#|--0-----0-----0-----0-----0-----0-----0-----0----|
 B|--0-----0-----0-----0-----0-----0-----0-----0----|

   GTR I,II
c#|-------------------------------------------------|
G#|-------------------------------------------------|
 E|-------------------------------------------------|
 B|--3-----3-----3-----3-----3-----3-----3-----3----|
F#|--3-----3-----3-----3-----3-----3-----3-----3----|
 B|--3-----3-----3-----3-----3-----3-----3-----3----|

Bridge

   GTR I,II
c#|-------------------------------------------------|
G#|-------------------------------------------------|
 E|-------------------------------------------------|
 B|--5--------3--------4--------5--------3--------4-|
F#|--5--------3--------4--------5--------3--------4-|
 B|--5--------3--------4--------5--------3--------4-|

   GTR I,II
c#|-------------------------------------------------|
G#|-------------------------------------------------|
 E|--------------------------------------7----------|
 B|--------5--------3--------4-----------7----------|
F#|--------5--------3--------4-----0-----5----------|
 B|--------5--------3--------4-----0----------------|
                                   .

   GTR I
c#|-------------------------------------------------|
G#|-------------------------------------------------|
 E|-12-------10-------11-------12-------10-------11-|
 B|-12-------10-------11-------12-------10-------11-|
F#|-10--------8--------9-------10--------8--------9-|
 B|-------------------------------------------------|
  |
  |GTR II
c#|-------------------------------------------------|
G#|-------------------------------------------------|
 E|-------------------------------------------------|
 B|--5--------3--------4--------5--------3--------4-|
F#|--5--------3--------4--------5--------3--------4-|
 B|--5--------3--------4--------5--------3--------4-|

   GTR I
c#|-------------------------------------------------|
G#|-------------------------------------15----------|
 E|-------12-------10-------11----------14----------|
 B|-------12-------10-------11----------12----------|
F#|-------10--------8--------9-----0----------------|
 B|--------------------------------0----------------|
  |                                .
  |GTR II
c#|-------------------------------------------------|
G#|-------------------------------------------------|
 E|--------------------------------------7----------|
 B|--------5--------3--------4-----------7----------|
F#|--------5--------3--------4-----0-----5----------|
 B|--------5--------3--------4-----0----------------|
                                   .

Interlude

   GTR III
c#|-------------------------------------------------|
G#|-------------------------------------------------|
 E|-------------------------------------------------|
 B|-/5-----------------------------------5\---------|
F#|-/5-----------------------------------5\---------|
 B|-------------------------------------------------|

   GTR III
c#|-------------------------------------------------|
G#|-------------------------------------------------|
 E|-------------------------------------------------|
 B|--3-----------------------------------3/---------|
F#|--3-----------------------------------3/---------|
 B|-------------------------------------------------|

   GTR III
c#|-------------------------------------------------|
G#|-------------------------------------------------|
 E|-------------------------------------------------|
 B|--5-----------------------------------5\---------|
F#|--5-----------------------------------5\---------|
 B|-------------------------------------------------|

   GTR III
c#|-------------------------------------------------|
G#|-------------------------------------------------|
 E|-------------------------------------------------|
 B|--3-----------------------------------3/---------|
F#|--3-----------------------------------3/---------|
 B|-------------------------------------------------|

   GTR I,II
c#|-------------------------------------------------|
G#|-------------------------------------------------|
 E|-------------------------------------------------|
 B|-------------------------------------------------|
F#|--5-----5-----5-----5-----5-----5-----5-----5----|
 B|--5-----5-----5-----5-----5-----5-----5-----5----|
  |  .     .     .     .     .     .     .     .
  |GTR III
c#|-------------------------------------------------|
G#|-------------------------------------------------|
 E|-------------------------------------------------|
 B|--5-----------------------------------5\---------|
F#|--5-----------------------------------5\---------|
 B|-------------------------------------------------|

   GTR I,II
c#|-------------------------------------------------|
G#|-------------------------------------------------|
 E|-------------------------------------------------|
 B|-------------------------------------------------|
F#|--3-----3-----3-----3-----3-----3-----3-----3----|
 B|--3-----3-----3-----3-----3-----3-----3-----3----|
  |  .     .     .     .     .     .     .     .
  |GTR III
c#|-------------------------------------------------|
G#|-------------------------------------------------|
 E|-------------------------------------------------|
 B|--3-----------------------------------3/---------|
F#|--3-----------------------------------3/---------|
 B|-------------------------------------------------|

   GTR I,II
c#|-------------------------------------------------|
G#|-------------------------------------------------|
 E|-------------------------------------------------|
 B|--------------------------5-----5-----5-----5----|
F#|--5-----5-----5-----5-----5-----5-----5-----5----|
 B|--5-----5-----5-----5-----5-----5-----5-----5----|
  |  .     .     .     .                          
  |GTR III
c#|-------------------------------------------------|
G#|-------------------------------------------------|
 E|-------------------------------------------------|
 B|--5-----------------------------------5\---------|
F#|--5-----------------------------------5\---------|
 B|-------------------------------------------------|

   GTR III
c#|-------------------------------------------------|
G#|-------------------------------------------------|
 E|-------------------------------------------------|
 B|--3-----------2-----------1-----------0----------|
F#|--3-----------2-----------1-----------0----------|
 B|-------------------------------------------------|

Verse 3

   GTR I,II
c#|-------------------------------------------------|
G#|-------------------------------------------------|
 E|-------------------------------------------------|
 B|--------------------------------5--------3-------|
F#|--0--0--------9--------0--0--0--5--0--3--3-------|
 B|--0--0--9-10----10--9--0--0--0--5--0--3--3-------|
     .  .  .  .     .  .  .  .  .     .  .

   GTR I,II
c#|-------------------------------------------------|
G#|-------------------------------------------------|
 E|-------------------------------------------------|
 B|--------------------------------5-----3--3-------|
F#|--0--0--------9--------0--0--0--5--0--3--3-------|
 B|--0--0--9-10----10--9--0--0--0--5--0--3--3-------|
     .  .  .  .     .  .  .  .  .     .   

   GTR I,II
c#|-------------------------------------------------|
G#|-------------------------------------------------|
 E|-------------------------------------------------|
 B|--------------------------------5--------3-------|
F#|--0--0--------9--------0--0--0--5--0--3--3-------|
 B|--0--0--9-10----10--9--0--0--0--5--0--3--3-------|
     .  .  .  .     .  .  .  .  .     .  .

   GTR I,II
c#|-------------------------------------------------|
G#|-------------------------------------------------|
 E|-------------------------------------------------|
 B|-------------------------------------------------|
F#|--0--0--------9--------0--5-----5-----5-----5----|
 B|--0--0--9-10----10--9--0--5-----5-----5-----5----|
     .  .  .  .     .  .  .  .     .     .     .

Chorus 2

   GTR I,II
c#|-------------------------------------------------|
G#|--3-----3-----3-----3-----3-----3-----3-----3----|
 E|--2-----2-----2-----2-----2-----2-----2-----2----|
 B|--0-----0-----0-----0-----0-----0-----0-----0----|
F#|--0-----0-----0-----0-----0-----0-----0-----0----|
 B|--0-----0-----0-----0-----0-----0-----0-----0----|

   GTR I,II
c#|-------------------------------------------------|
G#|-------------------------------------------------|
 E|-------------------------------------------------|
 B|--3-----3-----3-----3-----3-----3-----3-----2----|
F#|--3-----3-----3-----3-----3-----3-----3-----2----|
 B|--3-----3-----3-----3-----3-----3-----3-----2----|

   GTR I,II
c#|-------------------------------------------------|
G#|--3-----3-----3-----3-----3-----3-----3-----3----|
 E|--2-----2-----2-----2-----2-----2-----2-----2----|
 B|--0-----0-----0-----0-----0-----0-----0-----0----|
F#|--0-----0-----0-----0-----0-----0-----0-----0----|
 B|--0-----0-----0-----0-----0-----0-----0-----0----|

   GTR I,II
c#|-------------------------------------------------|
G#|-------------------------------------------------|
 E|-------------------------------------------------|
 B|--3-----3-----3-----3-----3-----3-----3--5-------|
F#|--3-----3-----3-----3-----3-----3-----3--5-------|
 B|--3-----3-----3-----3-----3-----3-----3--5-------|

   GTR I,II
c#|-------------------------------------------------|
G#|--3-----3-----3-----3-----3-----3-----3-----3----|
 E|--2-----2-----2-----2-----2-----2-----2-----2----|
 B|--0-----0-----0-----0-----0-----0-----0-----0----|
F#|--0-----0-----0-----0-----0-----0-----0-----0----|
 B|--0-----0-----0-----0-----0-----0-----0-----0----|

   GTR I,II
c#|-------------------------------------------------|
G#|-------------------------------------------------|
 E|-------------------------------------------------|
 B|--3-----3-----3-----3-----3-----3-----3-----2----|
F#|--3-----3-----3-----3-----3-----3-----3-----2----|
 B|--3-----3-----3-----3-----3-----3-----3-----2----|

   GTR I,II
c#|-------------------------------------------------|
G#|--3-----3-----3-----3-----3-----3-----3-----3----|
 E|--2-----2-----2-----2-----2-----2-----2-----2----|
 B|--0-----0-----0-----0-----0-----0-----0-----0----|
F#|--0-----0-----0-----0-----0-----0-----0-----0----|
 B|--0-----0-----0-----0-----0-----0-----0-----0----|

   GTR I,II
c#|-------------------------------------------------|
G#|-------------------------------------------------|
 E|-------------------------------------------------|
 B|--3-----3-----3-----3-----3-----3-----3--5-------|
F#|--3-----3-----3-----3-----3-----3-----3--5-------|
 B|--3-----3-----3-----3-----3-----3-----3--5-------|

   GTR I,II
c#|-------------------------------------------------|
G#|--3-----3-----3-----3-----3-----3-----3-----3----|
 E|--2-----2-----2-----2-----2-----2-----2-----2----|
 B|--0-----0-----0-----0-----0-----0-----0-----0----|
F#|--0-----0-----0-----0-----0-----0-----0-----0----|
 B|--0-----0-----0-----0-----0-----0-----0-----0----|

   GTR I,II
c#|-------------------------------------------------|
G#|-------------------------------------------------|
 E|-------------------------------------------------|
 B|--3-----3-----3-----3-----3-----3-----3-----2----|
F#|--3-----3-----3-----3-----3-----3-----3-----2----|
 B|--3-----3-----3-----3-----3-----3-----3-----2----|

   GTR I,II
c#|-------------------------------------------------|
G#|--3-----3-----3-----3-----3-----3-----3-----3----|
 E|--2-----2-----2-----2-----2-----2-----2-----2----|
 B|--0-----0-----0-----0-----0-----0-----0-----0----|
F#|--0-----0-----0-----0-----0-----0-----0-----0----|
 B|--0-----0-----0-----0-----0-----0-----0-----0----|

   GTR I,II
c#|-------------------------------------------------|
G#|-------------------------------------------------|
 E|-------------------------------------------------|
 B|--3-----3-----3-----3-----3-----3-----3--5-------|
F#|--3-----3-----3-----3-----3-----3-----3--5-------|
 B|--3-----3-----3-----3-----3-----3-----3--5-------|

   GTR I,II
c#|-------------------------------------------------|
G#|--3-----3-----3-----3-----3-----3-----3-----3----|
 E|--2-----2-----2-----2-----2-----2-----2-----2----|
 B|--0-----0-----0-----0-----0-----0-----0-----0----|
F#|--0-----0-----0-----0-----0-----0-----0-----0----|
 B|--0-----0-----0-----0-----0-----0-----0-----0----|

   GTR I,II
c#|-------------------------------------------------|
G#|-------------------------------------------------|
 E|-------------------------------------------------|
 B|--3-----3-----3-----3-----3-----3-----3-----3----|
F#|--3-----3-----3-----3-----3-----3-----3-----3----|
 B|--3-----3-----3-----3-----3-----3-----3-----3----|

   GTR I,II
c#|-------------------------------------------------|
G#|--3-----3-----3-----3-----3-----3-----3-----3----|
 E|--2-----2-----2-----2-----2-----2-----2-----2----|
 B|--0-----0-----0-----0-----0-----0-----0-----0----|
F#|--0-----0-----0-----0-----0-----0-----0-----0----|
 B|--0-----0-----0-----0-----0-----0-----0-----0----|

   GTR I,II
c#|-------------------------------------------------|
G#|-------------------------------------------------|
 E|-------------------------------------------------|
 B|--3-----3-----3-----3-----3-----3-----3-----3----|
F#|--3-----3-----3-----3-----3-----3-----3-----3----|
 B|--3-----3-----3-----3-----3-----3-----3-----3----|

Outro

   GTR I
c#|-------------------------------------------------|
G#|-------------------------------------------------|
 E|-12-------10-------11-------12-------10-------11-|
 B|-12-------10-------11-------12-------10-------11-|
F#|-10--------8--------9-------10--------8--------9-|
 B|-------------------------------------------------|
  |
  |GTR II
c#|-------------------------------------------------|
G#|-------------------------------------------------|
 E|-------------------------------------------------|
 B|--5--------3--------4--------5--------3--------4-|
F#|--5--------3--------4--------5--------3--------4-|
 B|--5--------3--------4--------5--------3--------4-|

   GTR I
c#|-------------------------------------------------|
G#|-------------------------------------15----------|
 E|-------12-------10-------11----------14----------|
 B|-------12-------10-------11----------12----------|
F#|-------10--------8--------9-----0----------------|
 B|--------------------------------0----------------|
  |                                .
  |GTR II
c#|-------------------------------------------------|
G#|-------------------------------------------------|
 E|--------------------------------------7----------|
 B|--------5--------3--------4-----------7----------|
F#|--------5--------3--------4-----0-----5----------|
 B|--------5--------3--------4-----0----------------|
                                   .

   GTR I,II
c#|-------------------------------------------------|
G#|-------------------------------------------------|
 E|-------------------------------------------------|
 B|--0--0-----------------0-----------------3-------|
F#|--0--0--------9--------0--0--0--0--0--0--3-------|
 B|--0--0--9-10----10--9--0--0--0--0--0--0--3-------|
           .  .     .  .     .  .  .  .  .
   GTR I
c#|-------------------------------------------------|
G#|-------------------------------------------------|
 E|-------------------------------------------------|
 B|--0--0-----------------0-------10\-7-10/12~------|
F#|--0--0--------9--------0-------------------------|
 B|--0--0--9-10----10--9--0-------------------------|
  |        .  .     .  .
  |GTR II
c#|-------------------------------------------------|
G#|-------------------------------------------------|
 E|-------------------------------------------------|
 B|--0--0-----------------0-----------------6-------|
F#|--0--0--------9--------0-----------------6-------|
 B|--0--0--9-10----10--9--0-----------------6-------|
           .  .     .  .                   

   GTR I,II
c#|-------------------------------------------------|
G#|-------------------------------------------------|
 E|-------------------------------------------------|
 B|--0--0-----------------0-----------------3-------|
F#|--0--0--------9--------0--0--0--0--0--0--3-------|
 B|--0--0--9-10----10--9--0--0--0--0--0--0--3-------|
           .  .     .  .     .  .  .  .  .
   GTR I
c#|-------------------------------------------------|
G#|-------------------------------------------------|
 E|-------------------------------------------------|
 B|--0--0-----------------0--------9/10--9\-7~------|
F#|--0--0--------9--------0-------------------------|
 B|--0--0--9-10----10--9--0-------------------------|
  |        .  .     .  .
  |GTR II
c#|-------------------------------------------------|
G#|-------------------------------------------------|
 E|-------------------------------------------------|
 B|--0--0-----------------0--------5b---r5--4-------|
F#|--0--0--------9--------0--0--0--5b---r5--4-------|
 B|--0--0--9-10----10--9--0--0--0--5b---r5--4-------|
           .  .     .  .     .  .         

END

------------------------------------------------------------------------------
10. Confession
    Words & Music by Tyler Connolly and Chad Kroeger
------------------------------------------------------------------------------

GTR I - Drop C Tuning (d,A,F,C,G,C) 
GTR II - Drop C Tuning (d,A,F,C,G,C)  

Intro

  GTR I
d|-------------------------------------------------|
A|-------------------------------------------------|
F|-------------------------------------------------|
C|--7--9--9--9--9--7--0----------------------------|
G|--7--9--9--9--9--7--0----------------------------|
C|--7--9--9--9--9--7--0----------------------------|

  GTR I
d|-------------------------------------------------|
A|-------------------------------------------------|
F|-------------------------------------------------|
C|--7--9--9--9--9--7--0-----------------------2----|
G|--7--9--9--9--9--7--0--------------------0--2----|
C|--7--9--9--9--9--7--0--------------------0--2----|
                                           .

  GTR I
d|-------------------------------------------------|
A|-------------------------------------------------|
F|-------------------------------------------------|
C|--7--9--9--9--9--7--0----------------------------|
G|--7--9--9--9--9--7--0----------------------------|
C|--7--9--9--9--9--7--0----------------------------|

  GTR I
d|-------------------------------------------------|
A|-------------------------------------------------|
F|-------------------------------------------------|
C|--7--9--9--9--9--7-----------------------0--0--0-|
G|--7--9--9--9--9--7--0--0--0--0--0--0--0--0--0--0-|
C|--7--9--9--9--9--7--0--0--0--0--0--0--0--0--0--0-|
                      .  .  .  .  .  .  . 

  GTR I
d|-------------------------------------------------|
A|-------------------------------------------------|
F|-------------------------------------------------|
C|--7--9--9--9--9--7--0--0--0--0--0--0--0--0--0--0-|
G|--7--9--9--9--9--7--0--0--0--0--0--0--0--0--0--0-|
C|--7--9--9--9--9--7--0--0--0--0--0--0--0--0--0--0-|
 |
 |GTR II
d|-----------------------0-------------------------|
A|-----3--------3--------------3--------3--------3-|
F|--------2--------2--------------2--------2-------|
C|--0--------0--------0--------------0--------0----|
G|-------------------------------------------------|
C|-------------------------------------------------|

  GTR I
d|-------------------------------------------------|
A|-------------------------------------------------|
F|-------------------------------------------------|
C|--7--9--9--9--9--7--0--0--0--0--0--0--0-----2----|
G|--7--9--9--9--9--7--0--0--0--0--0--0--0--0--2----|
C|--7--9--9--9--9--7--0--0--0--0--0--0--0--0--2----|
 |                                         .
 |GTR II
d|-----------------------0-------------------------|
A|-----3--------3--------------3--------3--------3-|
F|--------2--------2--------------2--------2-------|
C|--0--------0--------0--------------0--------0----|
G|-------------------------------------------------|
C|-------------------------------------------------|

  GTR I
d|-------------------------------------------------|
A|-------------------------------------------------|
F|-------------------------------------------------|
C|--7--9--9--9--9--7--0--0--0--0--0--0--0--0--0--0-|
G|--7--9--9--9--9--7--0--0--0--0--0--0--0--0--0--0-|
C|--7--9--9--9--9--7--0--0--0--0--0--0--0--0--0--0-|
 |
 |GTR II
d|-----------------------0-------------------------|
A|-----3--------3--------------3--------3--------3-|
F|--------2--------2--------------2--------2-------|
C|--0--------0--------0--------------0--------0----|
G|-------------------------------------------------|
C|-------------------------------------------------|

  GTR I
d|-------------------------------------------------|
A|-------------------------------------------------|
F|-------------------------------------------------|
C|--7--9--7--7--------2----------------------------|
G|--7--9--7--7--0--0--2----------------------------|
C|--7--9--7--7--0--0--2----------------------------|
 |              .  .
 |GTR II
d|-------------------------------------------------|
A|-----3--------3-----2----------------------------|
F|--------2--------2--2----------------------------|
C|--0--------0--------0----------------------------|
G|-------------------------------------------------|
C|-------------------------------------------------|

Verse

  GTR I,II
d|-------------------------------------------------|
A|-------------------------------------------------|
F|-------------------------------------------------|
C|-------------------------------------------------|
G|-------------------------------------------------|
C|-------------------------------------------------|

  GTR I,II
d|-------------------------------------------------|
A|-------------------------------------------------|
F|-------------------------------------------------|
C|-------------------------------------------------|
G|-------------------------------------------------|
C|-------------------------------------------------|

  GTR I,II
d|-------------------------------------------------|
A|-------------------------------------------------|
F|-------------------------------------------------|
C|-------------------------------------------------|
G|-------------------------------------------------|
C|-------------------------------------------------|

  GTR I,II
d|-------------------------------------------------|
A|-------------------------------------------------|
F|-----------------------2/------------------------|
C|-----------------------2/------------------------|
G|-----------------------0-------------------------|
C|-------------------------------------------------|

  GTR I
d|-------------------------------------------------|
A|-------------------------------------------------|
F|-------------------------------------------------|
C|--7--9--9--9--9--7-------------------------------|
G|--7--9--9--9--9--7--0--0--0--0--0--0--0--0--0--0-|
C|--7--9--9--9--9--7--0--0--0--0--0--0--0--0--0--0-|
 |                    .  .  .  .  .  .  .  .  .  .
 |GTR II
d|-----------------------0-------------------------|
A|-----3--------3--------------3--------3--------3-|
F|--------2--------2--------------2--------2-------|
C|--0--------0--------0--------------0--------0----|
G|-------------------------------------------------|
C|-------------------------------------------------|

  GTR I
d|-------------------------------------------------|
A|-------------------------------------------------|
F|-------------------------------------------------|
C|--7--9--9--9--9--7-------------------------------|
G|--7--9--9--9--9--7--0--0--0--0--0--0--0--0--0--0-|
C|--7--9--9--9--9--7--0--0--0--0--0--0--0--0--0--0-|
 |                    .  .  .  .  .  .  .  .  .  .
 |GTR II
d|-----------------------0-------------------------|
A|-----3--------3--------------3--------3--------3-|
F|--------2--------2--------------2--------2-------|
C|--0--------0--------0--------------0--------0----|
G|-------------------------------------------------|
C|-------------------------------------------------|

  GTR I
d|-------------------------------------------------|
A|-------------------------------------------------|
F|-------------------------------------------------|
C|--7--9--9--9--9--7-------------------------------|
G|--7--9--9--9--9--7--0--0--0--0--0--0--0--0--0--0-|
C|--7--9--9--9--9--7--0--0--0--0--0--0--0--0--0--0-|
 |                    .  .  .  .  .  .  .  .  .  .
 |GTR II
d|-----------------------0-------------------------|
A|-----3--------3--------------3--------3--------3-|
F|--------2--------2--------------2--------2-------|
C|--0--------0--------0--------------0--------0----|
G|-------------------------------------------------|
C|-------------------------------------------------|

  GTR I
d|-------------------------------------------------|
A|-------------------------------------------------|
F|-------------------------------------------------|
C|--7--9--7--7--------2----------------------------|
G|--7--9--7--7--0--0--2----------------------------|
C|--7--9--7--7--0--0--2----------------------------|
 |              .  .
 |GTR II
d|-------------------------------------------------|
A|-----3--------3-----2----------------------------|
F|--------2--------2--2----------------------------|
C|--0--------0--------0----------------------------|
G|-------------------------------------------------|
C|-------------------------------------------------|

Chorus

  GTR I,II
d|-------------------------------------------------|
A|-------------------------------------------------|
F|-------------------------------------------------|
C|--7--9--9--9--9--7--0--0--0--0--0--0--0--0--0--0-|
G|--7--9--9--9--9--7--0--0--0--0--0--0--0--0--0--0-|
C|--7--9--9--9--9--7--0--0--0--0--0--0--0--0--0--0-|

  GTR I,II
d|-------------------------------------------------|
A|-------------------------------------------------|
F|-------------------------------------------------|
C|--7--7--7--7--7--7--2--2--2--2--2--2-----0-------|
G|--7--7--7--7--7--7--2--2--2--2--2--2--0--0-------|
C|--7--7--7--7--7--7--2--2--2--2--2--2--0--0-------|
                                        .   

  GTR I,II
d|-------------------------------------------------|
A|-------------------------------------------------|
F|-------------------------------------------------|
C|--7--9--9--9--9--7--0--0--0--0--0--0--0--0--0--0-|
G|--7--9--9--9--9--7--0--0--0--0--0--0--0--0--0--0-|
C|--7--9--9--9--9--7--0--0--0--0--0--0--0--0--0--0-|

  GTR I,II
d|-------------------------------------------------|
A|-------------------------------------------------|
F|-------------------------------------------------|
C|--7--7--7--7--7--7--2--2--2--2--2--2-----0-------|
G|--7--7--7--7--7--7--2--2--2--2--2--2--0--0-------|
C|--7--7--7--7--7--7--2--2--2--2--2--2--0--0-------|
                                        .   

  GTR I
d|-------------------------------------------------|
A|-------------------------------------------------|
F|-------------------------------------------------|
C|--2-----2-----2-----2-----2-----2--------2-------|
G|--2-----2-----2-----2-----2-----2-----0--2-------|
C|--2-----2-----2-----2-----2-----2-----0--2-------|
 |                                      .
 |GTR II
d|-------------------------------------------------|
A|-------------------------------------------------|
F|----------------------------------------/9-------|
C|--2-----2-----2-----2-----2-----2----------------|
G|--2-----2-----2-----2-----2-----2-----0----------|
C|--2-----2-----2-----2-----2-----2-----0----------|
                                        .

  GTR I
d|-------------------------------------------------|
A|-------------------------------------------------|
F|-------------------------------------------------|
C|--0----------------------------------------------|
G|--0----------------------------------------------|
C|--0----------------------------------------------|
 |
 |GTR II
d|-------------------------------------------------|
A|-------------------------------------------------|
F|--7----------------------------------------------|
C|-------------------------------------------------|
G|-------------------------------------------------|
C|-------------------------------------------------|

Verse

  GTR I,II
d|-------------------------------------------------|
A|-------------------------------------------------|
F|-------------------------------------------------|
C|-------------------------------------------------|
G|-------------------------------------------------|
C|-------------------------------------------------|

  GTR I,II
d|-------------------------------------------------|
A|-------------------------------------------------|
F|-------------------------------------------------|
C|-------------------------------------------------|
G|-------------------------------------------------|
C|-------------------------------------------------|

  GTR I,II
d|-------------------------------------------------|
A|-------------------------------------------------|
F|-------------------------------------------------|
C|-------------------------------------------------|
G|-------------------------------------------------|
C|-------------------------------------------------|

  GTR I,II
d|-------------------------------------------------|
A|-------------------------------------------------|
F|-----------------------2/------------------------|
C|-----------------------2/------------------------|
G|-----------------------0-------------------------|
C|-------------------------------------------------|

  GTR I
d|-------------------------------------------------|
A|-------------------------------------------------|
F|-------------------------------------------------|
C|--7--9--9--9--9--7-------------------------------|
G|--7--9--9--9--9--7--0--0--0--0--0--0--0--0--0--0-|
C|--7--9--9--9--9--7--0--0--0--0--0--0--0--0--0--0-|
 |                    .  .  .  .  .  .  .  .  .  .
 |GTR II
d|-----------------------0-------------------------|
A|-----3--------3--------------3--------3--------3-|
F|--------2--------2--------------2--------2-------|
C|--0--------0--------0--------------0--------0----|
G|-------------------------------------------------|
C|-------------------------------------------------|

  GTR I
d|-------------------------------------------------|
A|-------------------------------------------------|
F|-------------------------------------------------|
C|--7--9--9--9--9--7-------------------------------|
G|--7--9--9--9--9--7--0--0--0--0--0--0--0--0--0--0-|
C|--7--9--9--9--9--7--0--0--0--0--0--0--0--0--0--0-|
 |                    .  .  .  .  .  .  .  .  .  .
 |GTR II
d|-----------------------0-------------------------|
A|-----3--------3--------------3--------3--------3-|
F|--------2--------2--------------2--------2-------|
C|--0--------0--------0--------------0--------0----|
G|-------------------------------------------------|
C|-------------------------------------------------|

  GTR I
d|-------------------------------------------------|
A|-------------------------------------------------|
F|-------------------------------------------------|
C|--7--9--9--9--9--7-------------------------------|
G|--7--9--9--9--9--7--0--0--0--0--0--0--0--0--0--0-|
C|--7--9--9--9--9--7--0--0--0--0--0--0--0--0--0--0-|
 |                    .  .  .  .  .  .  .  .  .  .
 |GTR II
d|-----------------------0-------------------------|
A|-----3--------3--------------3--------3--------3-|
F|--------2--------2--------------2--------2-------|
C|--0--------0--------0--------------0--------0----|
G|-------------------------------------------------|
C|-------------------------------------------------|

  GTR I
d|-------------------------------------------------|
A|-------------------------------------------------|
F|-------------------------------------------------|
C|--7--9--7--7--------2----------------------------|
G|--7--9--7--7--0--0--2----------------------------|
C|--7--9--7--7--0--0--2----------------------------|
 |              .  .
 |GTR II
d|-------------------------------------------------|
A|-----3--------3-----2----------------------------|
F|--------2--------2--2----------------------------|
C|--0--------0--------0----------------------------|
G|-------------------------------------------------|
C|-------------------------------------------------|

Chorus

  GTR I,II
d|-------------------------------------------------|
A|-------------------------------------------------|
F|-------------------------------------------------|
C|--7--9--9--9--9--7--0--0--0--0--0--0--0--0--0--0-|
G|--7--9--9--9--9--7--0--0--0--0--0--0--0--0--0--0-|
C|--7--9--9--9--9--7--0--0--0--0--0--0--0--0--0--0-|

  GTR I,II
d|-------------------------------------------------|
A|-------------------------------------------------|
F|-------------------------------------------------|
C|--7--7--7--7--7--7--2--2--2--2--2--2-----0-------|
G|--7--7--7--7--7--7--2--2--2--2--2--2--0--0-------|
C|--7--7--7--7--7--7--2--2--2--2--2--2--0--0-------|
                                        .   

  GTR I,II
d|-------------------------------------------------|
A|-------------------------------------------------|
F|-------------------------------------------------|
C|--7--9--9--9--9--7--0--0--0--0--0--0--0--0--0--0-|
G|--7--9--9--9--9--7--0--0--0--0--0--0--0--0--0--0-|
C|--7--9--9--9--9--7--0--0--0--0--0--0--0--0--0--0-|

  GTR I,II
d|-------------------------------------------------|
A|-------------------------------------------------|
F|-------------------------------------------------|
C|--7--7--7--7--7--7--2--2--2--2--2--2-----0-------|
G|--7--7--7--7--7--7--2--2--2--2--2--2--0--0-------|
C|--7--7--7--7--7--7--2--2--2--2--2--2--0--0-------|
                                        .   

  GTR I,II
d|-------------------------------------------------|
A|-------------------------------------------------|
F|-------------------------------------------------|
C|--7--9--9--9--9--7--0--0--0--0--0--0--0--0--0--0-|
G|--7--9--9--9--9--7--0--0--0--0--0--0--0--0--0--0-|
C|--7--9--9--9--9--7--0--0--0--0--0--0--0--0--0--0-|

  GTR I,II
d|-------------------------------------------------|
A|-------------------------------------------------|
F|-------------------------------------------------|
C|--7--7--7--7--7--7--2--2--2--2--2--2-----0-------|
G|--7--7--7--7--7--7--2--2--2--2--2--2--0--0-------|
C|--7--7--7--7--7--7--2--2--2--2--2--2--0--0-------|
                                        .   

  GTR I,II
d|-------------------------------------------------|
A|-------------------------------------------------|
F|-------------------------------------------------|
C|--7--9--9--9--9--7--0--0--0--0--0--0--0--0--0--0-|
G|--7--9--9--9--9--7--0--0--0--0--0--0--0--0--0--0-|
C|--7--9--9--9--9--7--0--0--0--0--0--0--0--0--0--0-|

  GTR I,II
d|-------------------------------------------------|
A|-------------------------------------------------|
F|-------------------------------------------------|
C|--7--7--7--7--7--7--2--2--2--2--2--2-----0-------|
G|--7--7--7--7--7--7--2--2--2--2--2--2--0--0-------|
C|--7--7--7--7--7--7--2--2--2--2--2--2--0--0-------|
                                        .   

  GTR I
d|-------------------------------------------------|
A|-------------------------------------------------|
F|-------------------------------------------------|
C|--2-----2-----2-----2-----2-----2--------2-------|
G|--2-----2-----2-----2-----2-----2-----0--2-------|
C|--2-----2-----2-----2-----2-----2-----0--2-------|
 |                                      .
 |GTR II
d|-------------------------------------------------|
A|-------------------------------------------------|
F|----------------------------------------/9-------|
C|--2-----2-----2-----2-----2-----2----------------|
G|--2-----2-----2-----2-----2-----2-----0----------|
C|--2-----2-----2-----2-----2-----2-----0----------|
                                        .

  GTR I
d|-------------------------------------------------|
A|-------------------------------------------------|
F|-------------------------------------------------|
C|--0----------------------------------------------|
G|--0----------------------------------------------|
C|--0----------------------------------------------|
 |
 |GTR II
d|-------------------------------------------------|
A|-------------------------------------------------|
F|--7----------------------------------------------|
C|-------------------------------------------------|
G|-------------------------------------------------|
C|-------------------------------------------------|

Bridge

  GTR I,II
d|-------------------------------------------------|
A|-------------------------------------------------|
F|-------------------------------------------------|
C|-------------------------------------------------|
G|-------------------------------------------------|
C|-------------------------------------------------|

  GTR I
d|-------------------------------------------------|
A|-------------------------------------------------|
F|-------------------------------------------------|
C|-------------------------------------------------|
G|--------------------------Pickslide--------------|
C|--------------------------Pickslide--------------|
 |
 |GTR II
d|-----------------------0-------------------------|
A|-----3--------3--------------3--------3--------3-|
F|--------2--------2--------------2--------2-------|
C|--0--------0--------0--------------0--------0----|
G|-------------------------------------------------|
C|-------------------------------------------------|

Solo

  GTR I
d|-------------------------------------------------|
A|-------------------------------------------------|
F|-/6b------------------\4~------------------------|
C|-------------------------------------------------|
G|-------------------------------------------------|
C|-------------------------------------------------|
 |
 |GTR II
d|-------------------------------------------------|
A|-------------------------------------------------|
F|-------------------------------------------------|
C|--7--9--9--9--9--7--0----------------------------|
G|--7--9--9--9--9--7--0----------------------------|
C|--7--9--9--9--9--7--0----------------------------|

  GTR I
d|-------------------------------------------------|
A|-------------------------------------------------|
F|-------------------------------------------------|
C|--4-/7--6~----7~----4~---------------------------|
G|-------------------------------------------------|
C|-------------------------------------------------|
 |  .
 |GTR II
d|-------------------------------------------------|
A|-------------------------------------------------|
F|-------------------------------------------------|
C|--7--9--9--9--9--7--0-----------------------2----|
G|--7--9--9--9--9--7--0--------------------0--2----|
C|--7--9--9--9--9--7--0--------------------0--2----|
                                           .

  GTR I
d|-------------------------------------------------|
A|-------------------------------------------------|
F|---/14-13~---14~---11~---------------------------|
C|-------------------------------------------------|
G|-------------------------------------------------|
C|-------------------------------------------------|
 |
 |GTR II
d|-------------------------------------------------|
A|-------------------------------------------------|
F|-------------------------------------------------|
C|--7--9--9--9--9--7--0----------------------------|
G|--7--9--9--9--9--7--0----------------------------|
C|--7--9--9--9--9--7--0----------------------------|

  GTR I
d|-------------------------------------------------|
A|-------------------------------------------------|
F|---/14-13~---14~---18~---------------------------|
C|-------------------------------------------------|
G|-------------------------------------------------|
C|-------------------------------------------------|
 |
 |GTR II
d|-------------------------------------------------|
A|-------------------------------------------------|
F|-------------------------------------------------|
C|--7--9--7--7--------2----------------------------|
G|--7--9--7--7--0--0--2----------------------------|
C|--7--9--7--7--0--0--2----------------------------|
                .  .

  GTR I
d|-------------------------------------------------|
A|-------------------------------------------------|
F|-------------------------------------------------|
C|-------------------------------------------------|
G|-------------------------------------------------|
C|-------------------------------------------------|
 |
 |GTR II
d|-------------------------------------------------|
A|-------------------------------------------------|
F|-------------------------------------------------|
C|--7--9-----7--9-----2----------------------------|
G|--7--9--0--7--9--0--2----------------------------|
C|--7--9--0--7--9--0--2----------------------------|
          .        .

  GTR I
d|-------------------------------------------------|
A|-------------------------------------------------|
F|-------------------------------------------------|
C|-------------------------------------------------|
G|-------------------------------------------------|
C|-------------------------------------------------|
 |
 |GTR II
d|-------------------------------------------------|
A|-------------------------------------------------|
F|-------------------------------------------------|
C|--7--9-----7--9-----2----------------------------|
G|--7--9--0--7--9--0--2----------------------------|
C|--7--9--0--7--9--0--2----------------------------|
          .        .

  GTR I
d|-------------------------------------------------|
A|-------------------------------------------------|
F|-------------------------------------------------|
C|-------------------------------------------------|
G|-------------------------------------------------|
C|-------------------------------------------------|
 |
 |GTR II
d|-------------------------------------------------|
A|-------------------------------------------------|
F|-------------------------------------------------|
C|--0--------2--------4-----------------7--7--7--7-|
G|--0--------2--------4-----------------7--7--7--7-|
C|--0--------2--------4-----------------7--7--7--7-|
                    
Chorus

  GTR I,II
d|-------------------------------------------------|
A|-------------------------------------------------|
F|-------------------------------------------------|
C|--7--9--9--9--9--7--0--0--0--0--0--0--0--0--0--0-|
G|--7--9--9--9--9--7--0--0--0--0--0--0--0--0--0--0-|
C|--7--9--9--9--9--7--0--0--0--0--0--0--0--0--0--0-|

  GTR I,II
d|-------------------------------------------------|
A|-------------------------------------------------|
F|-------------------------------------------------|
C|--7--7--7--7--7--7--2--2--2--2--2--2-----0-------|
G|--7--7--7--7--7--7--2--2--2--2--2--2--0--0-------|
C|--7--7--7--7--7--7--2--2--2--2--2--2--0--0-------|
                                        .   

  GTR I,II
d|-------------------------------------------------|
A|-------------------------------------------------|
F|-------------------------------------------------|
C|--7--9--9--9--9--7--0--0--0--0--0--0--0--0--0--0-|
G|--7--9--9--9--9--7--0--0--0--0--0--0--0--0--0--0-|
C|--7--9--9--9--9--7--0--0--0--0--0--0--0--0--0--0-|

  GTR I,II
d|-------------------------------------------------|
A|-------------------------------------------------|
F|-------------------------------------------------|
C|--7--7--7--7--7--7--2--2--2--2--2--2-----0-------|
G|--7--7--7--7--7--7--2--2--2--2--2--2--0--0-------|
C|--7--7--7--7--7--7--2--2--2--2--2--2--0--0-------|
                                        .   

  GTR I,II
d|-------------------------------------------------|
A|-------------------------------------------------|
F|-------------------------------------------------|
C|--7--9--9--9--9--7--0--0--0--0--0--0--0--0--0--0-|
G|--7--9--9--9--9--7--0--0--0--0--0--0--0--0--0--0-|
C|--7--9--9--9--9--7--0--0--0--0--0--0--0--0--0--0-|

  GTR I,II
d|-------------------------------------------------|
A|-------------------------------------------------|
F|-------------------------------------------------|
C|--7--7--7--7--7--7--2--2--2--2--2--2-----0-------|
G|--7--7--7--7--7--7--2--2--2--2--2--2--0--0-------|
C|--7--7--7--7--7--7--2--2--2--2--2--2--0--0-------|
                                        .   

  GTR I,II
d|-------------------------------------------------|
A|-------------------------------------------------|
F|-------------------------------------------------|
C|--7--9--9--9--9--7--0--0--0--0--0--0--0--0--0--0-|
G|--7--9--9--9--9--7--0--0--0--0--0--0--0--0--0--0-|
C|--7--9--9--9--9--7--0--0--0--0--0--0--0--0--0--0-|

  GTR I,II
d|-------------------------------------------------|
A|-------------------------------------------------|
F|-------------------------------------------------|
C|--7--7--7--7--7--7--2--2--2--2--2--2-----0-------|
G|--7--7--7--7--7--7--2--2--2--2--2--2--0--0-------|
C|--7--7--7--7--7--7--2--2--2--2--2--2--0--0-------|
                                        .   

Outro

  GTR I
d|-------------------------------------------------|
A|-------------------------------------------------|
F|-------------------------------------------------|
C|--7--9--9--9--9--7--0--0--0--0--0--0--0--0--0--0-|
G|--7--9--9--9--9--7--0--0--0--0--0--0--0--0--0--0-|
C|--7--9--9--9--9--7--0--0--0--0--0--0--0--0--0--0-|
 |
 |GTR II
d|-----------------------0-------------------------|
A|-----3--------3--------------3--------3--------3-|
F|--------2--------2--------------2--------2-------|
C|--0--------0--------0--------------0--------0----|
G|-------------------------------------------------|
C|-------------------------------------------------|

  GTR I
d|-------------------------------------------------|
A|-------------------------------------------------|
F|-------------------------------------------------|
C|--7--9--9--9--9--7--0--0--0--0--0--0--0-----2----|
G|--7--9--9--9--9--7--0--0--0--0--0--0--0--0--2----|
C|--7--9--9--9--9--7--0--0--0--0--0--0--0--0--2----|
 |                                         .
 |GTR II
d|-----------------------0-------------------------|
A|-----3--------3--------------3--------3--------3-|
F|--------2--------2--------------2--------2-------|
C|--0--------0--------0--------------0--------0----|
G|-------------------------------------------------|
C|-------------------------------------------------|

  GTR I
d|-------------------------------------------------|
A|-------------------------------------------------|
F|-------------------------------------------------|
C|--7--9--9--9--9--7--0--0--0--0--0--0--0--0--0--0-|
G|--7--9--9--9--9--7--0--0--0--0--0--0--0--0--0--0-|
C|--7--9--9--9--9--7--0--0--0--0--0--0--0--0--0--0-|
 |
 |GTR II
d|-----------------------0-------------------------|
A|-----3--------3--------------3--------3--------3-|
F|--------2--------2--------------2--------2-------|
C|--0--------0--------0--------------0--------0----|
G|-------------------------------------------------|
C|-------------------------------------------------|

  GTR I
d|-------------------------------------------------|
A|-------------------------------------------------|
F|-------------------------------------------------|
C|--7--9--9--9--9--7--0--0--0--0--0--0--0-----2----|
G|--7--9--9--9--9--7--0--0--0--0--0--0--0--0--2----|
C|--7--9--9--9--9--7--0--0--0--0--0--0--0--0--2----|
 |                                         .
 |GTR II
d|-----------------------0-------------------------|
A|-----3--------3--------------3--------3--------3-|
F|--------2--------2--------------2--------2-------|
C|--0--------0--------0--------------0--------0----|
G|-------------------------------------------------|
C|-------------------------------------------------|

  GTR I
d|-------------------------------------------------|
A|-------------------------------------------------|
F|-------------------------------------------------|
C|--7--9--9--9--9--7--0--0--0--0--0--0--0--0--0--0-|
G|--7--9--9--9--9--7--0--0--0--0--0--0--0--0--0--0-|
C|--7--9--9--9--9--7--0--0--0--0--0--0--0--0--0--0-|
 |
 |GTR II
d|-----------------------0-------------------------|
A|-----3--------3--------------3--------3--------3-|
F|--------2--------2--------------2--------2-------|
C|--0--------0--------0--------------0--------0----|
G|-------------------------------------------------|
C|-------------------------------------------------|

  GTR I
d|-------------------------------------------------|
A|-------------------------------------------------|
F|-------------------------------------------------|
C|--7--9--9--9--9--7--0--0--0--0--0--0--0-----2----|
G|--7--9--9--9--9--7--0--0--0--0--0--0--0--0--2----|
C|--7--9--9--9--9--7--0--0--0--0--0--0--0--0--2----|
 |                                         .
 |GTR II
d|-----------------------0-------------------------|
A|-----3--------3--------------3--------3--------3-|
F|--------2--------2--------------2--------2-------|
C|--0--------0--------0--------------0--------0----|
G|-------------------------------------------------|
C|-------------------------------------------------|

  GTR I
d|-------------------------------------------------|
A|-------------------------------------------------|
F|-------------------------------------------------|
C|--7--9--9--9--9--7--0--0--0--0--0--0--0--0--0--0-|
G|--7--9--9--9--9--7--0--0--0--0--0--0--0--0--0--0-|
C|--7--9--9--9--9--7--0--0--0--0--0--0--0--0--0--0-|
 |
 |GTR II
d|-----------------------0-------------------------|
A|-----3--------3--------------3--------3--------3-|
F|--------2--------2--------------2--------2-------|
C|--0--------0--------0--------------0--------0----|
G|-------------------------------------------------|
C|-------------------------------------------------|

  GTR I
d|-------------------------------------------------|
A|-------------------------------------------------|
F|-------------------------------------------------|
C|--7--9--7--7--------2----------------------------|
G|--7--9--7--7--0--0--2----------------------------|
C|--7--9--7--7--0--0--2----------------------------|
 |              .  .
 |GTR II
d|-------------------------------------------------|
A|-----3--------3-----2----------------------------|
F|--------2--------2--2----------------------------|
C|--0--------0--------0----------------------------|
G|-------------------------------------------------|
C|-------------------------------------------------|

END

------------------------------------------------------------------------------
11. Above This (Bonus Track)
    Words & Music by Tyler Connolly and Chad Kroeger
------------------------------------------------------------------------------

NOTE: The end of the solo is close, but I don't think it's completely 
accurate.

GTR I - Drop B Tuning "Tyler Connolly" (c#,G#,E,B,F#,B)
GTR II - Drop B Tuning "Dave Brenner" (e#,G#,E,B,F#,B)
   
Intro

   GTR I,II
c#|-------------------------------------------------|
G#|-------------------------------------------------|
 E|-------------------------------------------------|
 B|--0--------0--5--4--3-----------3-----------3----|
F#|--0-----x--0--5--4--3-----3--3--3-----3--3--3----|
 B|--0-----x--0--5--4--3-----3--3--3-----3--3--3----|
                             .  .        .  .       

   GTR I,II
c#|-------------------------------------------------|
G#|-------------------------------------------------|
 E|-------------------------------------------------|
 B|--0-----0--0--5--4--3-----------3-----------3----|
F#|--0-----0--0--5--4--3-----3--3--3-----3--3--3----|
 B|--0-----0--0--5--4--3-----3--3--3-----3--3--3----|
                             .  .        .  .       

   GTR I,II
c#|-------------------------------------------------|
G#|-------------------------------------------------|
 E|-------------------------------------------------|
 B|--0-----0--0--5--4--3-----------3-----------3----|
F#|--0-----0--0--5--4--3-----3--3--3-----3--3--3----|
 B|--0-----0--0--5--4--3-----3--3--3-----3--3--3----|
                             .  .        .  .       

   GTR I,II
c#|-------------------------------------------------|
G#|-------------------------------------------------|
 E|-------------------------------------------------|
 B|--0-----0--0--5--4--3-----------3-----------3----|
F#|--0-----0--0--5--4--3-----3--3--3-----3--3--3----|
 B|--0-----0--0--5--4--3-----3--3--3-----3--3--3----|
                             .  .        .  .       

Verse

   GTR I,II
c#|-------------------------------------------------|
G#|-------------------------------------------------|
 E|-------------------------------------------------|
 B|--0--------0--------3-----------3-----------3----|
F#|--0-----0--0--5--4--3-----3--3--3-----3--3--3----|
 B|--0-----0--0--5--4--3-----3--3--3-----3--3--3----|
           .     .  .        .  .        .  .       

   GTR I,II
c#|-------------------------------------------------|
G#|-------------------------------------------------|
 E|-------------------------------------------------|
 B|--0--------0--------3-----------3-----------3----|
F#|--0-----0--0--5--4--3-----3--3--3-----3--3--3----|
 B|--0-----0--0--5--4--3-----3--3--3-----3--3--3----|
           .     .  .        .  .        .  .       

   GTR I,II
c#|-------------------------------------------------|
G#|-------------------------------------------------|
 E|-------------------------------------------------|
 B|--0--------0--------3-----------3-----------3----|
F#|--0-----0--0--5--4--3-----3--3--3-----3--3--3----|
 B|--0-----0--0--5--4--3-----3--3--3-----3--3--3----|
           .     .  .        .  .        .  .       

   GTR I,II
c#|-------------------------------------------------|
G#|-------------------------------------------------|
 E|-------------------------------------------------|
 B|--0--------0--------3-----------3--------3--3--3-|
F#|--0-----0--0--5--4--3-----3--3--3-----3--3--3--3-|
 B|--0-----0--0--5--4--3-----3--3--3-----3--3--3--3-|
           .     .  .        .  .        .          

Chorus

   GTR I,II
c#|-------------------------------------------------|
G#|-------------------------------------------------|
 E|-------------------------------------------------|
 B|--0--------0--5--4--3-----------3--------5-------|
F#|--0--------0--5--4--3--------3--3-----3--5-------|
 B|--0--------0--5--4--3--------3--3-----3--5-------|
                                .        .          

   GTR I,II
c#|-------------------------------------------------|
G#|-------------------------------------------------|
 E|-------------------------------------------------|
 B|--0--------0--5--4--3-----------3--------6-------|
F#|--0--------0--5--4--3--------3--3-----3--6-------|
 B|--0--------0--5--4--3--------3--3-----3--6-------|
                                .        .          

   GTR I,II
c#|-------------------------------------------------|
G#|-------------------------------------------------|
 E|-------------------------------------------------|
 B|--0--------0--5--4--3-----------3--------5-------|
F#|--0--------0--5--4--3--------3--3-----3--5-------|
 B|--0--------0--5--4--3--------3--3-----3--5-------|
                                .        .          

   GTR I,II
c#|-------------------------------------------------|
G#|-------------------------------------------------|
 E|-------------------------------------------------|
 B|--0--------0--5--4--3-----------3--------6-------|
F#|--0--------0--5--4--3--------3--3-----3--6-------|
 B|--0--------0--5--4--3--------3--3-----3--6-------|
                                .        .          

   GTR I,II
c#|-------------------------------------------------|
G#|-------------------------------------------------|
 E|-------------------------------------------------|
 B|--0--------0--5--4--3-----------3--------5-------|
F#|--0--------0--5--4--3--------3--3-----3--5-------|
 B|--0--------0--5--4--3--------3--3-----3--5-------|
                                .        .          

   GTR I,II
c#|-------------------------------------------------|
G#|-------------------------------------------------|
 E|-------------------------------------------------|
 B|--0--------0--5--4--3-----------3--------6-------|
F#|--0--------0--5--4--3--------3--3-----3--6-------|
 B|--0--------0--5--4--3--------3--3-----3--6-------|
                                .        .          

   GTR I,II
c#|-------------------------------------------------|
G#|-------------------------------------------------|
 E|-------------------------------------------------|
 B|--0--------0--5--4--3-----------3--------5-------|
F#|--0--------0--5--4--3--------3--3-----3--5-------|
 B|--0--------0--5--4--3--------3--3-----3--5-------|
                                .        .          

   GTR I,II
c#|-------------------------------------------------|
G#|-------------------------------------------------|
 E|-------------------------------------------------|
 B|--0--------0--5--4--3-----------3--------6-------|
F#|--0--------0--5--4--3--------3--3-----3--6-------|
 B|--0--------0--5--4--3--------3--3-----3--6-------|
                                .        .     
     
Verse 2

   GTR I,II
c#|-------------------------------------------------|
G#|-------------------------------------------------|
 E|-------------------------------------------------|
 B|--0-----------------3-----------3-----------3----|
F#|--0-----0--0--5--4--3-----3--3--3-----3--3--3----|
 B|--0-----0--0--5--4--3-----3--3--3-----3--3--3----|
           .  .  .  .        .  .        .  .       

   GTR I,II
c#|-------------------------------------------------|
G#|-------------------------------------------------|
 E|-------------------------------------------------|
 B|--0-----------------3-----------3-----------3----|
F#|--0-----0--0--5--4--3-----3--3--3-----3--3--3----|
 B|--0-----0--0--5--4--3-----3--3--3-----3--3--3----|
           .  .  .  .        .  .        .  .       

   GTR I,II
c#|-------------------------------------------------|
G#|-------------------------------------------------|
 E|-------------------------------------------------|
 B|--0-----------------3-----------3-----------3----|
F#|--0-----0--0--5--4--3-----3--3--3-----3--3--3----|
 B|--0-----0--0--5--4--3-----3--3--3-----3--3--3----|
           .  .  .  .        .  .        .  .       

   GTR I,II
c#|-------------------------------------------------|
G#|-------------------------------------------------|
 E|-------------------------------------------------|
 B|--0-----------------3-----------3-----------3----|
F#|--0-----0--0--5--4--3-----3--3--3-----3--3--3----|
 B|--0-----0--0--5--4--3-----3--3--3-----3--3--3----|
           .  .  .  .        .  .        .  .       

Chorus

   GTR I,II
c#|-------------------------------------------------|
G#|-------------------------------------------------|
 E|-------------------------------------------------|
 B|--0--------0--5--4--3-----------3--------5-------|
F#|--0--------0--5--4--3--------3--3-----3--5-------|
 B|--0--------0--5--4--3--------3--3-----3--5-------|
                                .        .          

   GTR I,II
c#|-------------------------------------------------|
G#|-------------------------------------------------|
 E|-------------------------------------------------|
 B|--0--------0--5--4--3-----------3--------6-------|
F#|--0--------0--5--4--3--------3--3-----3--6-------|
 B|--0--------0--5--4--3--------3--3-----3--6-------|
                                .        .          

   GTR I,II
c#|-------------------------------------------------|
G#|-------------------------------------------------|
 E|-------------------------------------------------|
 B|--0--------0--5--4--3-----------3--------5-------|
F#|--0--------0--5--4--3--------3--3-----3--5-------|
 B|--0--------0--5--4--3--------3--3-----3--5-------|
                                .        .          

   GTR I,II
c#|-------------------------------------------------|
G#|-------------------------------------------------|
 E|-------------------------------------------------|
 B|--0--------0--5--4--3-----------3--------6-------|
F#|--0--------0--5--4--3--------3--3-----3--6-------|
 B|--0--------0--5--4--3--------3--3-----3--6-------|
                                .        .          

   GTR I,II
c#|-------------------------------------------------|
G#|-------------------------------------------------|
 E|-------------------------------------------------|
 B|--0--------0--5--4--3-----------3--------5-------|
F#|--0--------0--5--4--3--------3--3-----3--5-------|
 B|--0--------0--5--4--3--------3--3-----3--5-------|
                                .        .          

   GTR I,II
c#|-------------------------------------------------|
G#|-------------------------------------------------|
 E|-------------------------------------------------|
 B|--0--------0--5--4--3-----------3--------6-------|
F#|--0--------0--5--4--3--------3--3-----3--6-------|
 B|--0--------0--5--4--3--------3--3-----3--6-------|
                                .        .          

   GTR I,II
c#|-------------------------------------------------|
G#|-------------------------------------------------|
 E|-------------------------------------------------|
 B|--0--------0--5--4--3-----------3--------5-------|
F#|--0--------0--5--4--3--------3--3-----3--5-------|
 B|--0--------0--5--4--3--------3--3-----3--5-------|
                                .        .          

   GTR I,II
c#|-------------------------------------------------|
G#|-------------------------------------------------|
 E|-------------------------------------------------|
 B|--0--------0--5--4--3-----------3--------6-------|
F#|--0--------0--5--4--3--------3--3-----3--6-------|
 B|--0--------0--5--4--3--------3--3-----3--6-------|
                                .        .     

Bridge

   GTR I,II
c#|-------------------------------------------------|
G#|-------------------------------------------------|
 E|-------------------------------------------------|
 B|--8--8--8--8--8--8--8--8--8--8--8--8--8--8--8--8-|
F#|--8--8--8--8--8--8--8--8--8--8--8--8--8--8--8--8-|
 B|--8--8--8--8--8--8--8--8--8--8--8--8--8--8--8--8-|
 
   GTR I,II
c#|-------------------------------------------------|
G#|-------------------------------------------------|
 E|-------------------------------------------------|
 B|-10-10-10-10-10-10-10-10-10-10-10-10-10-10-10-10-|
F#|-10-10-10-10-10-10-10-10-10-10-10-10-10-10-10-10-|
 B|-10-10-10-10-10-10-10-10-10-10-10-10-10-10-10-10-|

   GTR I,II
c#|-------------------------------------------------|
G#|-------------------------------------------------|
 E|-------------------------------------------------|
 B|--8--8--8--8--8--8--8--8--8--8--8--8--8--8--8--8-|
F#|--8--8--8--8--8--8--8--8--8--8--8--8--8--8--8--8-|
 B|--8--8--8--8--8--8--8--8--8--8--8--8--8--8--8--8-|

   GTR I,II
c#|-------------------------------------------------|
G#|-------------------------------------------------|
 E|-------------------------------------------------|
 B|-10----------------------------------------------|
F#|-10----------------------------------------------|
 B|-10----------------------------------------------|

Guitar Break

   GTR I,II
c#|-------------------------------------------------|
G#|-------------------------------------------------|
 E|-------------------------------------------------|
 B|-------------------------------------------------|
F#|-------------------------------------------------|
 B|-------------------------------------------------|

   GTR I,II
c#|-------------------------------------------------|
G#|-------------------------------------------------|
 E|-------------------------------------------------|
 B|-------------------------------------------------|
F#|-------------------------------------------------|
 B|-------------------------------------------------|

   GTR I,II
c#|-------------------------------------------------|
G#|-------------------------------------------------|
 E|-------------------------------------------------|
 B|-------------------------------------------------|
F#|-------------------------------------------------|
 B|-------------------------------------------------|

   GTR I,II
c#|-------------------------------------------------|
G#|-------------------------------------------------|
 E|-------------------------------------------------|
 B|-------------------------------------------------|
F#|-----------------------Pickslide-Up--------------|
 B|-----------------------Pickslide-Up--------------|

Guitar Solo

   GTR I
c#|-------------------------------------------------|
G#|-------------------------------------------------|
 E|-------------------------------------------------|
 B|-------------------------------------------------|
F#|--3-------/5-----0h-3p-0--5----/8-----5----------|
 B|-------------------------------------------------|
  |
  |GTR II
c#|-------------------------------------------------|
G#|-------------------------------------------------|
 E|-------------------------------------------------|
 B|--0--------0--5--4--3-----------3--------5-------|
F#|--0--------0--5--4--3--------3--3-----3--5-------|
 B|--0--------0--5--4--3--------3--3-----3--5-------|
                                .        .          

   GTR I
c#|-------------------------------------------------|
G#|-------------------------------------------------|
 E|-------------------------------------------------|
 B|-------------------------------------------------|
F#|--0h-3p-0--5--8--5~---p0h-3p-0-------------------|
 B|--------------------------------5~----3~---------|
  |
  |GTR II
c#|-------------------------------------------------|
G#|-------------------------------------------------|
 E|-------------------------------------------------|
 B|--0--------0--5--4--3-----------3--------6-------|
F#|--0--------0--5--4--3--------3--3-----3--6-------|
 B|--0--------0--5--4--3--------3--3-----3--6-------|
                                .        .          

   GTR I
c#|-------------------------------------------------|
G#|----------10-------------10h12-------10h13p10-12\|
 E|----------10-------------10h12----10-10-------12\|
 B|----10-12-------12-10-12-------12----------------|
F#|-12----------------------------------------------|
 B|-------------------------------------------------|
  |  .  .  .        .  .  .        .  .            
  |GTR II
c#|-------------------------------------------------|
G#|-------------------------------------------------|
 E|-------------------------------------------------|
 B|--0--------0--5--4--3-----------3--------5-------|
F#|--0--------0--5--4--3--------3--3-----3--5-------|
 B|--0--------0--5--4--3--------3--3-----3--5-------|
                                .        .          

   GTR I
c#|-------------------------------------------------|
G#|----10----10-12-13p12p10-----101210--101210------|
 E|----10----10-------------12--101210--101210---12-|
 B|-12----12--------------------------12------12----|
F#|-------------------------------------------------|
 B|-------------------------------------------------|
  |
  |GTR II
c#|-------------------------------------------------|
G#|-------------------------------------------------|
 E|-------------------------------------------------|
 B|--0--------0--5--4--3-----------3--------6-------|
F#|--0--------0--5--4--3--------3--3-----3--6-------|
 B|--0--------0--5--4--3--------3--3-----3--6-------|
                                .        .          

Final Chorus

   GTR I
c#|-------------------------------------------------|
G#|-------------------------------------------------|
 E|-14~---------------------------------------------|
 B|-------------------------------------------------|
F#|-------------------------------------------------|
 B|-------------------------------------------------|
  |
  |GTR II
c#|-------------------------------------------------|
G#|-------------------------------------------------|
 E|-------------------------------------------------|
 B|--0--------0--5--4--3-----------3--------5-------|
F#|--0--------0--5--4--3--------3--3-----3--5-------|
 B|--0--------0--5--4--3--------3--3-----3--5-------|
                                .        .          

   GTR II
c#|-------------------------------------------------|
G#|-------------------------------------------------|
 E|-------------------------------------------------|
 B|--0--------0--5--4--3-----------3--------6-------|
F#|--0--------0--5--4--3--------3--3-----3--6-------|
 B|--0--------0--5--4--3--------3--3-----3--6-------|
                                .        .          

   GTR II
c#|-------------------------------------------------|
G#|-------------------------------------------------|
 E|-------------------------------------------------|
 B|--0--------0--5--4--3-----------3--------5-------|
F#|--0--------0--5--4--3--------3--3-----3--5-------|
 B|--0--------0--5--4--3--------3--3-----3--5-------|
                                .        .          

   GTR II
c#|-------------------------------------------------|
G#|-------------------------------------------------|
 E|-------------------------------------------------|
 B|--0--------0--5--4--3-----------3--------6-------|
F#|--0--------0--5--4--3--------3--3-----3--6-------|
 B|--0--------0--5--4--3--------3--3-----3--6-------|
                                .        .          

   GTR I,II
c#|-------------------------------------------------|
G#|-------------------------------------------------|
 E|-------------------------------------------------|
 B|--0-----0--0--5--4--3--------3--3-----3--5-------|
F#|--0-----0--0--5--4--3--------3--3-----3--5-------|
 B|--0-----0--0--5--4--3--------3--3-----3--5-------|
                                                    
   GTR I,II
c#|-------------------------------------------------|
G#|-------------------------------------------------|
 E|-------------------------------------------------|
 B|--0-----0--0--5--4--3--------3--3-----3--6-------|
F#|--0-----0--0--5--4--3--------3--3-----3--6-------|
 B|--0-----0--0--5--4--3--------3--3-----3--6-------|

   GTR I,II
c#|-------------------------------------------------|
G#|-------------------------------------------------|
 E|-------------------------------------------------|
 B|--0-----0--0--5--4--3--------3--3-----3--5-------|
F#|--0-----0--0--5--4--3--------3--3-----3--5-------|
 B|--0-----0--0--5--4--3--------3--3-----3--5-------|
                                                    
   GTR I,II
c#|-------------------------------------------------|
G#|-------------------------------------------------|
 E|-------------------------------------------------|
 B|--0-----0--0--5--4--3--------3--3-----3--6-------|
F#|--0-----0--0--5--4--3--------3--3-----3--6-------|
 B|--0-----0--0--5--4--3--------3--3-----3--6-------|

   GTR I,II
c#|-------------------------------------------------|
G#|-------------------------------------------------|
 E|-------------------------------------------------|
 B|--0-----0--0--5--4--3-----------3-----------3----|
F#|--0-----0--0--5--4--3-----3--3--3-----3--3--3----|
 B|--0-----0--0--5--4--3-----3--3--3-----3--3--3----|
                             .  .        .  .       

   GTR I,II
c#|-------------------------------------------------|
G#|-------------------------------------------------|
 E|-------------------------------------------------|
 B|--0-----0--0--5--4--3-----------3-----------3----|
F#|--0-----0--0--5--4--3-----3--3--3-----3--3--3----|
 B|--0-----0--0--5--4--3-----3--3--3-----3--3--3----|
                             .  .        .  .       

   GTR I,II
c#|-------------------------------------------------|
G#|-------------------------------------------------|
 E|-------------------------------------------------|
 B|--0-----0--0--5--4--3-----------3-----------3----|
F#|--0-----0--0--5--4--3-----3--3--3-----3--3--3----|
 B|--0-----0--0--5--4--3-----3--3--3-----3--3--3----|
                             .  .        .  .       

   GTR I,II
c#|-------------------------------------------------|
G#|-------------------------------------------------|
 E|-------------------------------------------------|
 B|--0-----0--0--5--4--3-----------3-----------3----|
F#|--0-----0--0--5--4--3-----3--3--3-----3--3--3----|
 B|--0-----0--0--5--4--3-----3--3--3-----3--3--3----|
                             .  .        .  .       

END

| b  bend
| r  release bend
|trp triplet
|PH. pinch harmonic
|fbk feedback
| .  palm-mute
| /  slide up
| \  slide down
| h  hammer-on
| p  pull-off
| ~  vibrato
|(7) harmonic
| x  Mute note
===============================================================================


Добавлено: 19.08.2013
Другие материалы по этой песне:
  • Аккорды и текст

Страница создана 19.08.2013
http://primanota.ru/theory-of-a-deadman/theory-of-a-deadman-chords.htm
Привет, Гость.
Предлагаем пройти революционный курс по гитаре.
Подарок от PrimaNota.Ru, забирай!