PrimaNota.ru - самый крупный в мире бесплатный архив песенных текстов, аккордов, табулатур и нот


Theory Of A Deadman - Drag Me To Hell - таба, видео

Регистрация Запомнить меня
Войти через:  Facebook Google Twitter Vk Yandex Mail.ru

Theory Of A Deadman - Drag Me To Hell - таба, видео

Печатать
Просмотров: 270
Drag Me To Hell
Theory of A Deadman
The Truth Is... (2011)

Words & Music by Tyler Connolly, Dean Back, and Dave Brenner

NOTE: I could not figure out a few parts of the solo.

GTR I - Drop C Tuning "Tyler Connolly" (d,A,F,C,G,C)
GTR II - Drop C Tuning "Dave Brenner" (d,A,F,C,G,C)

Intro

  GTR II
d|-------------------------------------------------|
A|-------------------------------------------------|
F|-------------------------------------------------|
C|-------------------------------------------------|
G|-------------------------------------------------|
C|-12--0--0-15--0-12--0--0-12--0--0-15--0-12--0--0-|

  GTR II
d|-------------------------------------------------|
A|-------------------------------------------------|
F|-------------------------------------------------|
C|-------------------------------------------------|
G|-------------------------------------------------|
C|-12--0--0-15--0-12--0--0-10-10-10-10--3--3--3--3-|

  GTR II
d|-------------------------------------------------|
A|-------------------------------------------------|
F|-------------------------------------------------|
C|-------------------------------------------------|
G|-------------------------------------------------|
C|-12--0--0-15--0-12--0--0-12--0--0-15--0-12--0--0-|

  GTR II
d|-------------------------------------------------|
A|-------------------------------------------------|
F|-------------------------------------------------|
C|-------------------------------------------------|
G|-------------------------------------------------|
C|-12--0--0-15--0-12--0--0-10-10-10-10--3--3--3--3-|

  GTR I
d|-------------------------------------------------|
A|--x--x--1-----x--x--1-----x--x--1-----x--x--1----|
F|--x--x--2-----x--x--2-----x--x--2-----x--x--2----|
C|--x--x--------x--x--------x--x--------x--x-------|
G|-------------------------------------------------|
C|-------------------------------------------------|
 |
 |GTR II
d|-------------------------------------------------|
A|-------------------------------------------------|
F|-------------------------------------------------|
C|-------------------------------------------------|
G|-------------------------------------------------|
C|-12--0--0-15--0-12--0--0-12--0--0-15--0-12--0--0-|

  GTR I
d|-------------------------------------------------|
A|--x--x--1-----x--x--1-----x--x--1-----x--x--1----|
F|--x--x--2-----x--x--2-----x--x--2-----x--x--2----|
C|--x--x--------x--x--------x--x--------x--x-------|
G|-------------------------------------------------|
C|-------------------------------------------------|
 |
 |GTR II
d|-------------------------------------------------|
A|-------------------------------------------------|
F|-------------------------------------------------|
C|-------------------------------------------------|
G|-------------------------------------------------|
C|-12--0--0-15--0-12--0--0-10-10-10-10--3--3--3--3-|

  GTR I
d|-------------------------------------------------|
A|--x--x--1-----x--x--1-----x--x--1-----x--x--1----|
F|--x--x--2-----x--x--2-----x--x--2-----x--x--2----|
C|--x--x--------x--x--------x--x--------x--x-------|
G|-------------------------------------------------|
C|-------------------------------------------------|
 |
 |GTR II
d|-------------------------------------------------|
A|-------------------------------------------------|
F|-------------------------------------------------|
C|-------------------------------------------------|
G|-------------------------------------------------|
C|-12--0--0-15--0-12--0--0-12--0--0-15--0-12--0--0-|

  GTR I
d|-------------------------------------------------|
A|--x--x--1-----x--x--1-----1----------------------|
F|--x--x--2-----x--x--2-----2----------------------|
C|--x--x--------x--x-------------------------------|
G|-------------------------------------------------|
C|-------------------------------------------------|
 |
 |GTR II
d|-------------------------------------------------|
A|-------------------------------------------------|
F|-------------------------------------------------|
C|-------------------------------------------------|
G|-------------------------------------------------|
C|-12--0--0-15--0-12--0--0-10----------------------|

Main Riff

  GTR I,II
d|-------------------------------------------------|
A|-------------------------------------------------|
F|-------------------------------------------------|
C|-------------------------------------------------|
G|-------------------------------------------------|
C|--0--0--0--3--0--0--0--0--0--0--0--3--0--0--0--0-|

  GTR I,II
d|-------------------------------------------------|
A|-------------------------------------------------|
F|-------------------------------------------------|
C|-------------------------------------------------|
G|-------------------------------------------------|
C|--0--0--0--3--0--0--0--0-10-10-10-10--3--3--3--3-|

  GTR I,II
d|-------------------------------------------------|
A|-------------------------------------------------|
F|-------------------------------------------------|
C|-------------------------------------------------|
G|-------------------------------------------------|
C|--0--0--0--3--0--0--0--0--0--0--0--3--0--0--0--0-|

  GTR I,II
d|-------------------------------------------------|
A|-------------------------------------------------|
F|-------------------------------------------------|
C|-------------------------------------------------|
G|-------------------------------------------------|
C|--0--0--0--3--0--0--0--0-10-10-10-10--3--3--3--3-|

Verse

  GTR II
d|-------------------------------------------------|
A|-------------------------------------------------|
F|-------------------------------------------------|
C|-------------------------------------------------|
G|-------------------------------------------------|
C|-12--0--0-12--0--0-12--0-12--0--0-12--0--0-12--0-|

  GTR II
d|-------------------------------------------------|
A|-------------------------------------------------|
F|-------------------------------------------------|
C|-------------------------------------------------|
G|-------------------------------------------------|
C|-10--0--0-10--0--0-10--0-13--0--0-13--0--0-13--0-|

  GTR II
d|-------------------------------------------------|
A|-------------------------------------------------|
F|-------------------------------------------------|
C|-------------------------------------------------|
G|-------------------------------------------------|
C|-12--0--0-12--0--0-12--0-12--0--0-12--0--0-12--0-|

  GTR II
d|-------------------------------------------------|
A|-------------------------------------------------|
F|-------------------------------------------------|
C|-------------------------------------------------|
G|-------------------------------------------------|
C|-10--0--0-10--0--0-10--0--6--0--0--6--0--0--6--0-|

  GTR II
d|-------------------------------------------------|
A|-------------------------------------------------|
F|-------------------------------------------------|
C|-------------------------------------------------|
G|-------------------------------------------------|
C|-12--0--0-12--0--0-12--0-12--0--0-12--0--0-12--0-|

  GTR II
d|-------------------------------------------------|
A|-------------------------------------------------|
F|-------------------------------------------------|
C|-------------------------------------------------|
G|-------------------------------------------------|
C|-10--0--0-10--0--0-10--0-13--0--0-13--0--0-13--0-|

  GTR II
d|-------------------------------------------------|
A|-------------------------------------------------|
F|-------------------------------------------------|
C|-------------------------------------------------|
G|-------------------------------------------------|
C|-12--0--0-12--0--0-12--0-12--0--0-12--0--0-12--0-|

  GTR II
d|-------------------------------------------------|
A|-------------------------------------------------|
F|-------------------------------------------------|
C|-------------------------------------------------|
G|-------------------------------------------------|
C|-10--0--0-10--0--0-10--0--6--0--0--6--0--0--6--0-|

Pre Chorus

  GTR I
d|-------------------------------------------------|
A|-------------------------15----------------------|
F|-------------------14----------------------------|
C|-12----------------------------------------------|
G|-------------------------------------------------|
C|-------------------------------------------------|
 |
 |GTR II
d|-------------------------------------------------|
A|-------------------------------------------------|
F|-------------------------------------------------|
C|--8--------8--------8-----8--------8--------8----|
G|--8--------8--------8-----8--------8--------8----|
C|--8--------8--------8-----8--------8--------8----|

  GTR II
d|-------------------------------------------------|
A|-------------------------------------------------|
F|-------------------------------------------------|
C|--5--------5--------5-----5--------5--------5----|
G|--5--------5--------5-----5--------5--------5----|
C|--5--------5--------5-----5--------5--------5----|

  GTR I,II
d|-------------------------------------------------|
A|-------------------------------------------------|
F|-------------------------------------------------|
C|--3\---------------------------------------------|
G|--3\---------------------------------------------|
C|--3\---------------------------------------------|

  GTR I,II
d|-------------------------------------------------|
A|-------------------------------------------------|
F|-------------------------------------------------|
C|--------------------------------------Pickslide--|
G|--------------------------------Pickslide--------|
C|--------------------------Pickslide--------------|

Chorus

  GTR I
d|-------------------------------------------------|
A|-------------------------------------------------|
F|--0--5--7--0--5--7--0--5--7--0--5--7--0--5--7----|
C|-------------------------------------------------|
G|-------------------------------------------------|
C|-------------------------------------------------|
 |
 |GTR II
d|-------------------------------------------------|
A|-------------------------------------------------|
F|-------------------------------------------------|
C|--0--------0--------0-----------0-----0-----0----|
G|--0--------0--------0-----------0-----0-----0----|
C|--0--------0--------0-----------0-----0-----0----|

  GTR I
d|-------------------------------------------------|
A|-------------------------------------------------|
F|--0--5--7--0--5--7--0--5--7--0--5--7--0--5--7----|
C|-------------------------------------------------|
G|-------------------------------------------------|
C|-------------------------------------------------|
 |
 |GTR II
d|-------------------------------------------------|
A|-------------------------------------------------|
F|-------------------------------------------------|
C|--3--------3--------3-----------3-----3-----3----|
G|--3--------3--------3-----------3-----3-----3----|
C|--3--------3--------3-----------3-----3-----3----|

  GTR I
d|-------------------------------------------------|
A|-------------------------------------------------|
F|--0--5--7--0--5--7--0--5--7--0--5--7--0--5--7----|
C|-------------------------------------------------|
G|-------------------------------------------------|
C|-------------------------------------------------|
 |
 |GTR II
d|-------------------------------------------------|
A|-------------------------------------------------|
F|-------------------------------------------------|
C|--8--------8--------8-----------8-----8-----8----|
G|--8--------8--------8-----------8-----8-----8----|
C|--8--------8--------8-----------8-----8-----8----|

  GTR I
d|-------------------------------------------------|
A|-------------------------------------------------|
F|--0--5--7--0--5--7--0--5--7~---------------------|
C|-------------------------------------------------|
G|-------------------------------------------------|
C|-------------------------------------------------|
 |
 |GTR II
d|-------------------------------------------------|
A|-------------------------------------------------|
F|-------------------------------------------------|
C|--5--------5--------5-----------5-----3-----2----|
G|--5--------5--------5-----------5-----3-----2----|
C|--5--------5--------5-----------5-----3-----2----|

  GTR I
d|-------------------------------------------------|
A|-------------------------------------------------|
F|--0--5--7--0--5--7--0--5--7--0--5--7--0--5--7----|
C|-------------------------------------------------|
G|-------------------------------------------------|
C|-------------------------------------------------|
 |
 |GTR II
d|-------------------------------------------------|
A|-------------------------------------------------|
F|-------------------------------------------------|
C|--0--------0--------0-----------0-----0-----0----|
G|--0--------0--------0-----------0-----0-----0----|
C|--0--------0--------0-----------0-----0-----0----|

  GTR I
d|-------------------------------------------------|
A|-------------------------------------------------|
F|--0--5--7--0--5--7--0--5--7--0--5--7--0--5--7----|
C|-------------------------------------------------|
G|-------------------------------------------------|
C|-------------------------------------------------|
 |
 |GTR II
d|-------------------------------------------------|
A|-------------------------------------------------|
F|-------------------------------------------------|
C|--3--------3--------3-----------3-----3-----3----|
G|--3--------3--------3-----------3-----3-----3----|
C|--3--------3--------3-----------3-----3-----3----|

  GTR I
d|-------------------------------------------------|
A|-------------------------------------------------|
F|--0--5--7--0--5--7--0--5--7--0--5--7--0--5--7----|
C|-------------------------------------------------|
G|-------------------------------------------------|
C|-------------------------------------------------|
 |
 |GTR II
d|-------------------------------------------------|
A|-------------------------------------------------|
F|-------------------------------------------------|
C|--8--------8--------8-----------8-----8-----8----|
G|--8--------8--------8-----------8-----8-----8----|
C|--8--------8--------8-----------8-----8-----8----|

  GTR I
d|-------------------------------------------------|
A|-------------------------------------------------|
F|--0--5--7--0--5--7--0--5--7~---------------------|
C|-------------------------------------------------|
G|-------------------------------------------------|
C|-------------------------------------------------|
 |
 |GTR II
d|-------------------------------------------------|
A|-------------------------------------------------|
F|-------------------------------------------------|
C|-10-------10-------10-----------5-----5-----3----|
G|-10-------10-------10-----------5-----5-----3----|
C|-10-------10-------10-----------5-----5-----3----|

Post Chorus

  GTR I,II
d|-------------------------------------------------|
A|-------------------------------------------------|
F|-------------------------------------------------|
C|-------------------------------------------------|
G|-------------------------------------------------|
C|--0--0--0--3--0--0--0--0--0--0--0--3--0--0--0--0-|

  GTR I,II
d|-------------------------------------------------|
A|-------------------------------------------------|
F|-------------------------------------------------|
C|-------------------------------------------------|
G|-------------------------------------------------|
C|--0--0--0--3--0--0--0--0-10-10-10-10--3--3--3--3-|

Verse 2 (GTR II plays "Verse")

  GTR I
d|-------------------------------------------------|
A|-------------------------------------------------|
F|-------------------------------------------------|
C|-12-12-12-12-12-12-12-12-12-12-12-12-12-12-12-12-|
G|-------------------------------------------------|
C|-------------------------------------------------|
    .  .  .  .  .  .  .  .  .  .  .  .  .  .  .  .

  GTR I
d|-------------------------------------------------|
A|-------------------------------------------------|
F|-------------------------------------------------|
C|-10-10-10-10-10-10-10-10-13-13-13-13-13-13-13-13-|
G|-------------------------------------------------|
C|-------------------------------------------------|
    .  .  .  .  .  .  .  .  .  .  .  .  .  .  .  .

  GTR I
d|-------------------------------------------------|
A|-------------------------------------------------|
F|-------------------------------------------------|
C|-12-12-12-12-12-12-12-12-12-12-12-12-12-12-12-12-|
G|-------------------------------------------------|
C|-------------------------------------------------|
    .  .  .  .  .  .  .  .  .  .  .  .  .  .  .  .

  GTR I
d|-------------------------------------------------|
A|-------------------------------------------------|
F|-------------------------------------------------|
C|-10-10-10-10-10-10-10-10--6--6--6--6--6--6--6--6-|
G|-------------------------------------------------|
C|-------------------------------------------------|
    .  .  .  .  .  .  .  .  .  .  .  .            

  GTR I
d|-------------------------------------------------|
A|-------------------------------------------------|
F|-------------------------------------------------|
C|-12-12-12-12-12-12-12-12-12-12-12-12-12-12-12-12-|
G|-------------------------------------------------|
C|-------------------------------------------------|
    .  .  .  .  .  .  .  .  .  .  .  .  .  .  .  .

  GTR I
d|-------------------------------------------------|
A|-------------------------------------------------|
F|-------------------------------------------------|
C|-10-10-10-10-10-10-10-10-13-13-13-13-13-13-13-13-|
G|-------------------------------------------------|
C|-------------------------------------------------|
    .  .  .  .  .  .  .  .  .  .  .  .  .  .  .  .

  GTR I
d|-------------------------------------------------|
A|-------------------------------------------------|
F|-------------------------------------------------|
C|-12-12-12-12-12-12-12-12-12-12-12-12-12-12-12-12-|
G|-------------------------------------------------|
C|-------------------------------------------------|
    .  .  .  .  .  .  .  .  .  .  .  .  .  .  .  .

  GTR I
d|-------------------------------------------------|
A|-------------------------------------------------|
F|-------------------------------------------------|
C|-10-10-10-10-10-10-10-10--6--6--6--6--6--6--6--6-|
G|-------------------------------------------------|
C|-------------------------------------------------|
    .  .  .  .  .  .  .  .  .  .  .  .            

Pre Chorus
Chorus
Post Chorus

Interlude

  GTR II
d|--5--5--5--5--5--5--5--5--5--5--5--5--5--5--5--5-|
A|--3--3--3--3--3--3--3--3--3--3--3--3--3--3--3--3-|
F|-------------------------------------------------|
C|-------------------------------------------------|
G|-------------------------------------------------|
C|-------------------------------------------------|

  GTR II
d|--7--7--7--7--7--7--7--7--7--7--7--7--7--7--7--7-|
A|--5--5--5--5--5--5--5--5--5--5--5--5--5--5--5--5-|
F|-------------------------------------------------|
C|-------------------------------------------------|
G|-------------------------------------------------|
C|-------------------------------------------------|

  GTR II
d|--5--5--5--5--5--5--5--5--5--5--5--5--5--5--5--5-|
A|--3--3--3--3--3--3--3--3--3--3--3--3--3--3--3--3-|
F|-------------------------------------------------|
C|-------------------------------------------------|
G|-------------------------------------------------|
C|-------------------------------------------------|

  GTR II
d|--7--7--7--7--7--7--7--7--5--5--5--5--4--4--4--4-|
A|--5--5--5--5--5--5--5--5--5--5--5--5--5--5--5--5-|
F|-------------------------------------------------|
C|-------------------------------------------------|
G|-------------------------------------------------|
C|-------------------------------------------------|

  GTR I
d|-------------------------------------------------|
A|-------------------------------------------------|
F|-------------------------------------------------|
C|--7--7--7--7--7--7--7--7--7--7--7--7--7--7--7--7-|
G|-------------------------------------------------|
C|-------------------------------------------------|
 |  .  .  .  .  .  .  .  .  .  .  .  .  .  .  .  .
 |GTR II
d|--5--5--5--5--5--5--5--5--5--5--5--5--5--5--5--5-|
A|--3--3--3--3--3--3--3--3--3--3--3--3--3--3--3--3-|
F|-------------------------------------------------|
C|-------------------------------------------------|
G|-------------------------------------------------|
C|-------------------------------------------------|

  GTR I
d|-------------------------------------------------|
A|-------------------------------------------------|
F|-------------------------------------------------|
C|--9--9--9--9--9--9--9--9-10-10-10-10--9--9--9--9-|
G|-------------------------------------------------|
C|-------------------------------------------------|
 |  .  .  .  .  .  .  .  .  .  .  .  .  .  .  .  .
 |GTR II
d|--7--7--7--7--7--7--7--7--7--7--7--7--7--7--7--7-|
A|--5--5--5--5--5--5--5--5--5--5--5--5--5--5--5--5-|
F|-------------------------------------------------|
C|-------------------------------------------------|
G|-------------------------------------------------|
C|-------------------------------------------------|

  GTR I
d|-------------------------------------------------|
A|-------------------------------------------------|
F|-------------------------------------------------|
C|--7--7--7--7--7--7--7--7--7--7--7--7--7--7--7--7-|
G|-------------------------------------------------|
C|-------------------------------------------------|
 |  .  .  .  .  .  .  .  .  .  .  .  .  .  .  .  .
 |GTR II
d|--5--5--5--5--5--5--5--5--5--5--5--5--5--5--5--5-|
A|--3--3--3--3--3--3--3--3--3--3--3--3--3--3--3--3-|
F|-------------------------------------------------|
C|-------------------------------------------------|
G|-------------------------------------------------|
C|-------------------------------------------------|

  GTR I
d|-------------------------------------------------|
A|-------------------------------------------------|
F|-------------------------------------------------|
C|--9--9--9--9--9--9--9--9-10-10-10-10--9--9--9--9-|
G|-------------------------------------------------|
C|-------------------------------------------------|
 |  .  .  .  .  .  .  .  .  .  .  .  .  .  .  .  .
 |GTR II
d|--7--7--7--7--7--7--7--7--5--5--5--5--4--4--4--4-|
A|--5--5--5--5--5--5--5--5--5--5--5--5--5--5--5--5-|
F|-------------------------------------------------|
C|-------------------------------------------------|
G|-------------------------------------------------|
C|-------------------------------------------------|

  GTR I
d|-------------------------------------------------|
A|-------------------------------------------------|
F|-------------------------------------------------|
C|-------------------------------------------------|
G|--8--8--8--8--8--8--8--8--8--8--8--8--8--8--8--8-|
C|-------------------------------------------------|
 |  .  .  .  .  .  .  .  .  .  .  .  .  .  .  .  .
 |GTR II
d|--5--5--5--5--5--5--5--5--5--5--5--5--5--5--5--5-|
A|--3--3--3--3--3--3--3--3--3--3--3--3--3--3--3--3-|
F|-------------------------------------------------|
C|-------------------------------------------------|
G|-------------------------------------------------|
C|-------------------------------------------------|

  GTR I
d|-------------------------------------------------|
A|-------------------------------------------------|
F|-------------------------------------------------|
C|-------------------------------------------------|
G|-10-10-10-10-10-10-10-10-11-11-11-11-11-11-11-11-|
C|-------------------------------------------------|
 |  .  .  .  .  .  .  .  .  .  .  .  .  .  .  .  .
 |GTR II
d|--7--7--7--7--7--7--7--7--8--8--8--8--8--8--8--8-|
A|--5--5--5--5--5--5--5--5--5--5--5--5--5--5--5--5-|
F|-------------------------------------------------|
C|-------------------------------------------------|
G|-------------------------------------------------|
C|-------------------------------------------------|

  GTR I
d|-------------------------------------------------|
A|-------------------------------------------------|
F|----------------------------------------10-------|
C|------------------------------------/12----12----|
G|-12~---------------------------------------------|
C|-------------------------------------------------|
 |
 |GTR II
d|--5--5--5--5--5--5--5--5--5--5--5--5--5--5--5--5-|
A|--3--3--3--3--3--3--3--3--3--3--3--3--3--3--3--3-|
F|-------------------------------------------------|
C|-------------------------------------------------|
G|-------------------------------------------------|
C|-------------------------------------------------|

  GTR I
d|-------------------------------------------------|
A|-------------------------------------------------|
F|-------------------------------------------------|
C|-------------------------------------------------|
G|-11~---------------------12----------14----------|
C|-------------------------------------------------|
 |
 |GTR II
d|--7--7--7--7--7--7--7--7--5--5--5--5--4--4--4--4-|
A|--5--5--5--5--5--5--5--5--5--5--5--5--5--5--5--5-|
F|-------------------------------------------------|
C|-------------------------------------------------|
G|-------------------------------------------------|
C|-------------------------------------------------|

  GTR I
d|-------------------------------------------------|
A|-------------------------------------------------|
F|-------------------------------------------------|
C|----------------------------------------------12-|
G|-15----14-12----------------------------14-15----|
C|-------------------------------------------------|
 |
 |GTR II
d|--5--5--5--5--5--5--5--5--5--5--5--5--5--5--5--5-|
A|--3--3--3--3--3--3--3--3--3--3--3--3--3--3--3--3-|
F|-------------------------------------------------|
C|-------------------------------------------------|
G|-------------------------------------------------|
C|-------------------------------------------------|

  GTR I
d|-------------------------------------------------|
A|-------------------------------------------15----|
F|-------------------------12------------/17----17-|
C|-15----------------------------------------------|
G|-------------------------------------------------|
C|-------------------------------------------------|
 |
 |GTR II
d|--7--7--7--7--7--7--7--7--8--8--8--8--8--8--8--8-|
A|--5--5--5--5--5--5--5--5--5--5--5--5--5--5--5--5-|
F|-------------------------------------------------|
C|-------------------------------------------------|
G|-------------------------------------------------|
C|-------------------------------------------------|

Guitar Solo (Played by GTR I)

  GTR I
d|-------------------------------------------------|
A|-------15-------15-------15-------15-------15----|
F|-17b------17b------17b------17b------17b------17b|
C|-------------------------------------------------|
G|-------------------------------------------------|
C|-------------------------------------------------|
 |
 |GTR II
d|-------------------------------------------------|
A|-------------------------------------------------|
F|-------------------------------------------------|
C|-------------------------------------------------|
G|-------------------------------------------------|
C|--0--0--0--3--0--0--0--0--0--0--0--3--0--0--0--0-|

  GTR I
d|-------------------------------------------------|
A|-15----15----15----15----------------------17/---|
F|----17b---17b---17b---17b15-17-15-14-------------|
C|-------------------------------------15~---------|
G|-------------------------------------------------|
C|-------------------------------------------------|
 |
 |GTR II
d|-------------------------------------------------|
A|-------------------------------------------------|
F|-------------------------------------------------|
C|-------------------------------------------------|
G|-------------------------------------------------|
C|--0--0--0--3--0--0--0--0-10-10-10-10--3--3--3--3-|

  GTR I
d|-17-------17-------17-------17-------17-------17-|
A|----20~------20~------20~------20~------20~------|
F|-------------------------------------------------|
C|-------------------------------------------------|
G|-------------------------------------------------|
C|-------------------------------------------------|
 |
 |GTR II
d|-------------------------------------------------|
A|-------------------------------------------------|
F|-------------------------------------------------|
C|-------------------------------------------------|
G|-------------------------------------------------|
C|--0--0--0--3--0--0--0--0--0--0--0--3--0--0--0--0-|

  GTR I
d|-19b------------------17-------------------------|
A|-------------------------20~---------------------|
F|-------------------------------------------------|
C|-------------------------------------------------|
G|-------------------------------------------------|
C|-------------------------------------------------|
 |
 |GTR II
d|-------------------------------------------------|
A|-------------------------------------------------|
F|-------------------------------------------------|
C|-------------------------------------------------|
G|-------------------------------------------------|
C|--0--0--0--3--0--0--0--0-10-10-10-10--3--3--3--3-|

  GTR I
d|-------------------------------------------------|
A|-------------------------------------------------|
F|-------------------------------------------------|
C|-------------------------------------------------|
G|-------------------------------------------------|
C|-------------------------------------------------|
 |
 |GTR II
d|-------------------------------------------------|
A|-------------------------------------------------|
F|-------------------------------------------------|
C|-------------------------------------------------|
G|-------------------------------------------------|
C|--0--0--0--3--0--0--0--0--0--0--0--3--0--0--0--0-|

  GTR I
d|-------------------------------------------------|
A|-------------------------------------------------|
F|-------------------------------------------------|
C|-------------------------------------------------|
G|-------------------------------------------------|
C|-------------------------------------------------|
 |
 |GTR II
d|-------------------------------------------------|
A|-------------------------------------------------|
F|-------------------------------------------------|
C|-------------------------------------------------|
G|-------------------------------------------------|
C|--0--0--0--3--0--0--0--0-10-10-10-10--3--3--3--3-|

  GTR I
d|-------------------------------------------------|
A|-------------------------------------------------|
F|-------------------------------------------------|
C|-------------------------------------------------|
G|-------------------------------------------------|
C|-------------------------------------------------|
 |
 |GTR II
d|-------------------------------------------------|
A|-------------------------------------------------|
F|-------------------------------------------------|
C|-------------------------------------------------|
G|-------------------------------------------------|
C|--0--0--0--3--0--0--0--0--0--0--0--3--0--0--0--0-|

  GTR I
d|----------------------13----------------------15-|
A|----------------13-15-------------------12-15----|
F|----------12-15-------------------12-15----------|
C|-------15----------------------15----------------|
G|----14----------------------14-------------------|
C|-12----------------------12----------------------|

Chorus
Main Riff

Outro

  GTR I,II
d|-------------------------------------------------|
A|-------------------------------------------------|
F|-------------------------------------------------|
C|-------------------------------------------------|
G|-------------------------------------------------|
C|--0--0--0-15\----0--0--0--0--0--0-15\----0--0--0-|

  GTR I,II
d|-------------------------------------------------|
A|-------------------------------------------------|
F|-------------------------------------------------|
C|-------------------------------------------------|
G|-------------------------------------------------|
C|--0--0--0-15\----0--0--0-10-10-10-10--3--3--3--3-|

  GTR I
d|-------------------------------------------------|
A|--x--x--1-----x--x--1-----x--x--1-----x--x--1----|
F|--x--x--2-----x--x--2-----x--x--2-----x--x--2----|
C|--x--x--------x--x--------x--x--------x--x-------|
G|-------------------------------------------------|
C|-------------------------------------------------|
 |
 |GTR II
d|-------------------------------------------------|
A|-------------------------------------------------|
F|-------------------------------------------------|
C|-------------------------------------------------|
G|-------------------------------------------------|
C|-12--0--0-15--0-12--0--0-12--0--0-15--0-12--0--0-|

  GTR I
d|-------------------------------------------------|
A|--x--x--1-----x--x--1-----x--x--1-----x--x--1----|
F|--x--x--2-----x--x--2-----x--x--2-----x--x--2----|
C|--x--x--------x--x--------x--x--------x--x-------|
G|-------------------------------------------------|
C|-------------------------------------------------|
 |
 |GTR II
d|-------------------------------------------------|
A|-------------------------------------------------|
F|-------------------------------------------------|
C|-------------------------------------------------|
G|-------------------------------------------------|
C|-12--0--0-15--0-12--0--0-10-10-10-10--3--3--3--3-|

| b  bend
| r  release bend
|trp triplet
|PH. pinch harmonic
|fbk feedback
| .  palm-mute
| /  slide up
| \  slide down
| h  hammer-on
| p  pull-off
| ~  vibrato
|(7) harmonic
| x  Mute note
===============================================================================

Добавлено: 29.09.2013
Другие материалы по этой песне:
  • Аккорды и текст

Страница создана 29.09.2013
http://primanota.ru/theory-of-a-deadman/drag-me-to-hell-chords.htm
Привет, Гость.
Предлагаем пройти революционный курс по гитаре.
Подарок от PrimaNota.Ru, забирай!