PrimaNota.ru - самый крупный в мире бесплатный архив песенных текстов, аккордов, табулатур и нот


The Used - Wake The Dead - текст песни, таба, бас-таба, видео

Регистрация Запомнить меня
Войти через:  Facebook Google Twitter Vk Yandex Mail.ru

The Used - Wake The Dead - текст песни, таба, бас-таба, видео

Печатать
Просмотров: 166
Уроки эстрадного вокала в Санкт-Петербурге
-------------------------------------------------------------------------------
                             Wake The Dead - The Used
-------------------------------------------------------------------------------
Tabbed by: MyChemicalLife a.k.a AblinkVboxA
Email: ablinkvboxa@hotmail.com (feel free to e-mail with comment or corrections THANKS!)


First tab for wake the dead :)

Such an awesome song.
scary in a way lol. 
Enjoy.. I tried my best!



Tuning: Drop D (DADGBe)

(00:12)
e|---------------------------------------------------------------------------|
B|---------------------------------------------------------------------------|
G|---------------------------------------------------------------------------|
D|---------------------------------------------------------------------------|
A|---------------------------------------------------------------------------|
D|-----/9h12--12p11--11h12-12-/14---9h12--12p11-11--0-0----------------------|

e|---------------------------------------------------------------------------|
B|---------------------------------------------------------------------------|
G|---------------------------------------------------------------------------|
D|--------------------------------------------------0-0----------------------|
A|--------------------------------------------------0-0----------------------|
D|-----/9h12--12p11--11h12-12-/14---9h12--12p11-11--0-0----------------------|

e|---------------------------------------------------------------------------|
B|---------------------------------------------------------------------------|
G|---------------------------------------------------------------------------|
D|---------------------------------------------------------------------------|
A|---------------------------------------------------------------------------|
D|-----/9h12--12p11--11h12-12-/14---9h12--12p11-11--0-0----------------------|

e|---------------------------------------------------------------------------|
B|---------------------------------------------------------------------------|
G|---------------------------------------------------------------------------|
D|---------------------------------------------------------------------------|
A|---------------------------------------------------------------------------|
D|-----/9h12--12p11--11h12-12-/14---9h12--12p11-11--0-0----------------------|

e|---------------------------------------------------------------------------|
B|---------------------------------------------------------------------------|
G|---------------------------------------------------------------------------|
D|---------------------------------------------------------------------------|
A|---------------------------------------------------------------------------|
D|---0-9-9-12-12-11-11-14---0-9-9-12-12-11-11-0-0---0-9-9-12-12-11-11-14-----|
     . . . .  .  .  .  .    . . .  .  .  .  . . .   . . .  .  .  .  . .
              This is not natural                  A bunch of holes where the 
e|---------------------------------------------------------------------------|
B|---------------------------------------------------------------------------|
G|---------------------------------------------------------------------------|
D|--------------------0-0-----0-9-9-12-12-11-11-14----0-9-9-12-12-11-11------|
A|--------------------0-0-----0-9-9-12-12-11-11-14----0-9-9-12-12-11-11------|
D|--0-9-9-12-12-11-11-0-0-----0-9-9-12-12-11-11-14----0-9-9-12-12-11-11--0---|
    . . .  .  . .  .          . . .  .  .  .  .  .    . . .  .  .  .  .
dead used to be underground                    Forget supernatural
e|---------------------------------------------------------------------------|
B|---------------------------------------------------------------------------|
G|---------------------------------------------------------------------------|
D|--------------------------------------------------0-0---5-55-5-4---55-5----|
A|--------------------------------------------------0-0---5-55-5-4---55-5-5--|
D|-----/9h12--12p11--11h12-12-/14---9h12--12p11-11--0-0---5-55-5-4---55-5----|
 
'cause all those resting in peace are out walking the streets Yeah with no                         
                                                                    heartbeat 

e|---------------------------------------------------------------------------|
B|---------------------------------------------------------------------------|
G|---------------------------------------------------------------------------|
D|--9999999999-121212121212-5555555555555555555----10101010101010------------|
A|--9999999999-121212121212-5555555555555555555----10101010101010------------|
D|--9999999999-121212121212-5555555555555555555----10101010101010------------|

  Across the...hear you on...A scream ...         ..the dead..
e|---------------------------------------------------------------------------|
B|---------------------------------------------------------------------------|
G|---------------------------------------------------------------------------|
D|--9999999999-121212121212---5-5-5---5-5-5---10101010101010-----------------|
A|--9999999999-121212121212---5-5-5---5-5-5---10101010101010-----------------|
D|--9999999999-121212121212---5-5-5---5-5-5---10101010101010-----------------|
   All alone... tickets for..wake.the.dead  wake the dead.....
e|---------------------------------------------------------------------------|
B|---------------------------------------------------------------------------|
G|---------------------------------------------------------------------------|
D|---------------------------------------------------------------------------|
A|---------------------------------------------------------------------------|
D|-----/9h12--12p11--11h12-12-/14---9h12--12p11-11--0-0----------------------|

e|---------------------------------------------------------------------------|
B|---------------------------------------------------------------------------|
G|---------------------------------------------------------------------------|
D|---------------------------------------------------------------------------|
A|---------------------------------------------------------------------------|
D|-----/9h12--12p11--11h12-12-/14---9h12--12p11-11--0-0----------------------|


e|---------------------------------------------------------------------------|
B|---------------------------------------------------------------------------|
G|---------------------------------------------------------------------------|
D|---------------------------------------------------------------------------|
A|---------------------------------------------------------------------------|
D|---------------------------------------------------------------------------|

e|---------------------------------------------------------------------------|
B|---------------------------------------------------------------------------|
G|---------------------------------------------------------------------------|
D|-9-9-----------------------------------------------------------------------|
A|-9-9-----------------------------------------------------------------------|
D|-9-9--0-9-9-12-12-11-11-14---0-9-9-12-12-11-11-0-0---0-9-9-12-12-11-11-14--|
        . . . .  .  .  .  .    . . .  .  .  .  . . .   . . .  .  .  .  . .

..used to be
e|---------------------------------------------------------------------------|
B|---------------------------------------------------------------------------|
G|---------------------------------------------------------------------------|
D|-------------------------------5-5-5---5-5-5-------------------------------|
A|-------------------------------5-5-5---5-5-5-------------------------------|
D|--/9h12--12p11--11h12-12-/14---5-5-5---5-5-5-------------------------------|

... be yeahhh...              ..with no heartbeat...
e|---------------------------------------------------------------------------|
B|---------------------------------------------------------------------------|
G|---------------------------------------------------------------------------|
D|--9999999999-121212121212-5555555555555555555----10101010101010------------|
A|--9999999999-121212121212-5555555555555555555----10101010101010------------|
D|--9999999999-121212121212-5555555555555555555----10101010101010------------|

e|---------------------------------------------------------------------------|
B|---------------------------------------------------------------------------|
G|---------------------------------------------------------------------------|
D|--9999999999-121212121212---5-5-5---5-5-5---4~-----------------------------|
A|--9999999999-121212121212---5-5-5---5-5-5---4~-----------------------------|
D|--9999999999-121212121212---5-5-5---5-5-5---4~-----------------------------|

(1:49)
e|---------------------------------------------------------------------------|
B|----------------------alternate-picking-fast-------------------------------|
G|---------------------------------------------------------------------------|
D|-17171717171717-16161616161616-202020202020-21212121212121-----------------|
A|---------------------------------------------------------------------------|
D|---------------------------------------------------------------------------|

(1:55)
e|---------------------------------------------------------------------------|
B|---------------------------------------------------------------------------|
G|---------------------------------------------------------------------------|
D|-2323232323232323--2020202020202020---212121212121212212121----------------|
A|---------------------------------------------------------------------------|
D|---------------------------------------------------------------------------|

(2:00)
e|---------------------------------------------------------------------------|
B|---------------------------------------------------------------------------|
G|---------------------------------------------------------------------------|
D|-1818181818181818--2020202020202020---16161616161616-161616-181818-202020--|
A|---------------------------------------------------------------------------|
D|---------------------------------------------------------------------------|

e|---------------------------------------------------------------------------|
B|---REPEAT-ABOVE-3-TIMES-BUT-END-WITH-BELOW-ON-3RD-V-V----------------------|
G|---------------------------------------------------------------------------|
D|-----------------------------------------------5-5-5-5-5-5-5-5-4-4-4-4-4-4-|
A|-----------------------------------------------5-5-5-5-5-5-5-5-4-4-4-4-4-4-|
D|-----------------------------------------------5-5-5-5-5-5-5-5-4-4-4-4-4-4-|
                                                 . . . . . . . . . . . . . . 
                                                    Well darling tonight
e|---------------------------------------------------------------------------|
B|---------------------------------------------------------------------------|
G|---------------------------------------------------------------------------|
D|-5-55-5-4---55--4---5-55-5---55-55--x-xx---5-55-5-4--55-5-4-xx-------------|
A|-5-55-5-4---55--4---5-55-5---55-55--x-xx---5-55-5-4--55-5-4-xx-------------|
D|-5-55-5-4---55--4---5-55-5---55-55--x-xx---5-55-5-4--55-5-4-xx-------------|

e|---------------------------------------------------------------------------|
B|---------------------------------------------------------------------------|
G|---------------------------------------------------------------------------|
D|-55-5-4-xx--5-4--55555555-\------------------------------------------------|
A|-55-5-4-xx--5-4--55555555-\------------------------------------------------|
D|-55-5-4-xx--5-4--55555555-\------------------------------------------------|


e|---------------------------------------------------------------------------|
B|---------------------------------------------------------------------------|
G|---------------------------------------------------------------------------|
D|--9999999999-121212121212-5555555555555555555----10101010101010------------|
A|--9999999999-121212121212-5555555555555555555----10101010101010------------|
D|--9999999999-121212121212-5555555555555555555----10101010101010------------|

e|---------------------------------------------------------------------------|
B|---------------------------------------------------------------------------|
G|---------------------------------------------------------------------------|
D|--9999999999-121212121212---5-5-5---5-5-5----------------------------------|
A|--9999999999-121212121212---5-5-5---5-5-5----------------------------------|
D|--9999999999-121212121212---5-5-5---5-5-5--------\\\pickscrape\\\----------|

e|---------------------------------------------------------------------------|
B|---------------------------------------------------------------------------|
G|---------------------------------------------------------------------------|
D|--9999999999-121212121212-5555555555555555555----5-5-5---------------------|
A|--9999999999-121212121212-5555555555555555555----5-5-5---------------------|
D|--9999999999-121212121212-5555555555555555555----5-5-5---------------------|
                                                   . . .

e|---------------------------------------------------------------------------|
B|---------------------------------------------------------------------------|
G|---------------------------------------------------------------------------|
D|--9999999999-121212121212---5-5-5---5-5-5-----5-5-5------------------------|
A|--9999999999-121212121212---5-5-5---5-5-5-----5-5-5------------------------|
D|--9999999999-121212121212---5-5-5---5-5-5-----5-5-5------------------------|

e|---------------------------------------------------------------------------|
B|---------------------------------------------------------------------------|
G|---------------------------------------------------------------------------|
D|---------------------------------------------------------------------------|
A|---------------------------------------------------------------------------|
D|-----/9h12--12p11--11h12-12-/14---9h12--12p11-11--0-0----------------------|

e|---------------------------------------------------------------------------|
B|---------------------------------------------------------------------------|
G|---------------------------------------------------------------------------|
D|---------------------------------------------------------------------------|
A|---------------------------------------------------------------------------|
D|-----/9h12--12p11--11h12-12-/14---9h12--12p11-11--0-0----------------------|

e|---------------------------------------------------------------------------|
B|---------------------------------------------------------------------------|
G|---------------------------------------------------------------------------|
D|---------------------------------------------------------------------------|
A|---------------------------------------------------------------------------|
D|-----/9h12--12p11--11h12-12-/14---9h12--12p11-11--0-0----------------------|

e|---------------------------------------------------------------------------|
B|---------------------------------------------------------------------------|
G|---------------------------------------------------------------------------|
D|--------------------------------------------------0-0----------------------|
A|--------------------------------------------------0-0----------------------|
D|-----/9h12--12p11--11h12-12-/14---9h12--12p11-11--0-0----------------------|



wow that took forever.
HAVE FUN!

| /  slide up
| \  slide down
| h  hammer-on
| p  pull-off
| ~  vibrato
| +  harmonic
| x  Mute note
===============================================================================
Добавлено: 24.04.2012
Другие материалы по этой песне:
  • Аккорды и текст

Страница создана 24.04.2012
http://primanota.ru/the-used/wake-the-dead-chords.htm
Привет, Гость.
Предлагаем пройти революционный курс по гитаре.
Подарок от PrimaNota.Ru, забирай!