PrimaNota.ru - самый крупный в мире бесплатный архив песенных текстов, аккордов, табулатур и нот


The Used - A Box Full Sharp Objects - бас-таба, видео

Регистрация Запомнить меня
Войти через:  Facebook Google Twitter Vk Yandex Mail.ru

The Used - A Box Full Sharp Objects - бас-таба, видео

Печатать
Просмотров: 92
The Used - A box full sharp objects

bass tab

by : doky 2007
taquilleros_de_sudamerica_maroyu_el_grupo_tropical_del_momento@hotmail.com

5-stringed bass
G D A E B

   INTRO
G-|-----------------|-------------|
D-|-----------------|-------------|
A-|-----------------|-------------|
E-|-2-2-2-2/5-55-55-|-2---2---2---|
B-|-----------------|-------------|
        *B*                                                                   

   VERSO
G-|------------------------------|
D-|------------------------------|
A-|-4444----4---4/7777----7---7\-|
E-|------44---4--------77---7----|
B-|------------------------------|
                                                                              

G-|-----------------------------------|------|
D-|-----------------------------------|------|
A-|-4--4--4/7--7--7-------------------|------|
E-|------------------5--5--55\4-4--4--|------|
B-|-----------------------------------|-5----|
               *A*                                                            

   CORO
G-|-------------------------------|
D-|-------------------------------|
A-|-------------------------------|
E-|----------7--7--5--5--5--------|
B-|-2--2--2-----------------4--4--|
                                                                              

   BREAK
G-|---------|---------|------|----------------|
D-|---------|---------|------|----------------|
A-|---------|---------|-4----|----------------|
E-|---------|---------|------|-5--5--5--------|
B-|-2--2--x-|---------|------|----------4--4--|
              + *A* +                                                          

   MIDDLE
G-|------|------------|-----------|---------|----|
D-|------|------4-----|-----------|---------|----|
A-|------|-6666---666-|-----------|---------|----|
E-|------|------------|-4444-2222-|---------|-5\-|
B-|-2----|------------|-----------|---------|----|
                          *C*       + *B* +                                    

   VARIACION DE *C*
G-|-----------|
D-|-----------|
A-|-----------|
E-|-444444444-|
B-|-----------|
                                                            

   FIN
G-|-------|
D-|-------|
A-|-------|
E-|-------|
B-|-------|
    = *B*

Les mando congratulaciones y salutaciones Al Gato y a La Paola C. que es ps su 
Добавлено: 04.11.2013
Другие материалы по этой песне:
  • Аккорды и текст

Страница создана 04.11.2013
http://primanota.ru/the-used/a-box-full-sharp-objects-chords.htm
Привет, Гость.
Предлагаем пройти революционный курс по гитаре.
Подарок от PrimaNota.Ru, забирай!