PrimaNota.ru - самый крупный в мире бесплатный архив песенных текстов, аккордов, табулатур и нот


The Red Jumpsuit Apparatus - Grim Goodbye - текст песни, таба, видео

Регистрация Запомнить меня
Войти через:  Facebook Google Twitter Vk Yandex Mail.ru

The Red Jumpsuit Apparatus - Grim Goodbye - текст песни, таба, видео

Печатать
Просмотров: 175
Уроки эстрадного вокала в Санкт-Петербурге
The Grimm Goodbye
The red Jumpsuit Apparatus
Don't you fake it
Drop C

i've submitted somay versions of this tab it's not even funny, all of them were in "drop 
then I found out that I had the tuning wrong.
so here is the new and improved "Grim Goodbye"

Intro: Guitar 1 (x4)
|----------------------------10-10-|-------------------------------|
|----------------------------------|-------------------------------|
|---12p10-10-9-10---12p10-10-------|---12p10-10-9-10---12-10-------|
|----------------------------------|-------------------------------|
|----------------------------------|-------------------------------|
|----------------------------------|-------------------------------|
Guitar 2 (x3)
|----------------------------------|-------------------------------|
|----------------------------------|-------------------------------|
|----------------------------------|-------------------------------|
|-0---------------0----------------|-0--------------0--------0--0--|
|----------------------------------|-------------------------0--0--|
|----------------------------------|-------------------------0--0--|

guitar 2
|------------|
|------------|
|---7-77-77--|
|---7-77-77--|
|---5-55-55--|
|------------|

guitar 1
|----------------------------10-10--|
|-----------------------------------|
|---12p8-10-9-10---12p10-10---------|(x4)
|-----------------------------------|
|-----------------------------------|
|-----------------------------------|

guitar 2
|----------------------------------------|
|----------------------------------------|
|--1111111111111111111111119999911111111-|
|--x-x-x-x-x-x-x-x-x-x-x-x-xxxxxx-x-x-x--|(x2)
|--9-9-9-9-9-9-9-9-9-9-9-9-777779-9-9-9--|
|----------------------------------------|
Wooooo, oh, oh, oh, oh, oh, oh,
Oh, oh, oh, oh my eyes.
Wooooo, oh, oh, oh, oh, oh, oh,
Oh, oh, oh, oh closing slowly.

|---------17^--|
|--------------|
|--99999-------|
|--xxxxx-------|
|--77777-------|
|--------------|

Pre-Verse: guitar 1
|-----------|
|-----------|
|--77-------|
|--77--1-3--|(x4)
|--55--1-3--|
|------1-3--|

guitar 2 (after third time of guitar 1)
|-----------------------------|
|-----------------------------|
|--111111111111-121212121212--|
|--x-x-x-x-x-x--x-x-x-x-x-x---|
|--9-9-9-9-9-9--111111111111--|
|-----------------------------|
Don't you try to take me down (no!)
Don't you try to take me over
Won't you try to break me

Guitar 1
|------------|
|------------|
|--77777777--|
|--xxxxxxxx--|
|--55555555--|
|------------|

Guitar 2
|No-distortion-------------------|
|--------------------------------|
|--------------------------------|
|--------------------------------|
|--7----10---5---5--7----10---5--|
|--5----8----3---3--5----8----3--|
|--------------------------------|
The complexities moving in
And I feel that I do not have the strength
Tragedies plaguing me solemnly
It's affecting my will.

Guitar 1
|------|
|------|
|--14--|
|--x---|
|--12--|
|------|

Verse: Guitar 1
|-------------------|
|-------------------|
|--7----7----7------|
|--x----x----x------|
|--5----5----5------|
|-------------------|

Guitar 2
|------------------------17--|
|----------------------------|
|-------------12h14-14-------|
|----------------------------|
|----------------------------|
|----------------------------|
But wait now that I've you

Guitar 1
|-------------------|
|-------------------|
|--5----5----5------|
|--x----x----x------|
|--3----3----3------|
|-------------------|

Guitar 2
|---------------------|
|---------------------|
|---------------------|
|---------------------|
|---------------------|
|--------------6-7-8--|
Situations from dark now change to grey

Guitar 1
|-------------------|
|-------------------|
|--7----7----7------|
|--x----x----x------|
|--5----5----5------|
|-------------------|

Guitar 2
|--------------------------------|
|--------------------------------|
|---------------12-10----12-10---|
|---------------------12-------12|
|--------------------------------|
|--------------------------------|
disregarding my absence of memories

Guitar 1
|-------------------|
|-------------------|
|--5----5----5------|
|--5----5----5------|
|--3----3----3------|
|-------------------|

Guitar 2
|---------------------|
|---------------------|
|---------------------|
|---------------------|
|---------------------|
|--------------6-7-8--|
It's perpetually binding me of sanity

Guitar 1
|--------------------|---------------|
|--------------------|---------------|
|--7----7----7----7--|--5----5----5--|
|--x----x----x----x--|--x----x----x--|
|--5----5----5----5--|--3----3----3--|
|--------------------|---------------|

Guitar 2
|--------------------|----|---------|
|--------------------|----|---------|
|--------------------|----|---------|
|--10-12-10----------|(x7)|---------|
|----------12-11-10--|----|---------|
|--------------------|----|--6-7-8--|
PM .  . .  .  .  .
And just when I'm giving in
As I try to Scale these walls

Guitar 1
|----------------|
|----------------|
|--7--7--77------|
|--x--x--77------|
|--5--5--55------|
|----------------|

Guitar 2
|-----------17~--|
|----------------|
|----------------|
|----------------|
|----------------|
|----------------|
Jericho falls around me

 Guitar 1
|-------------------|
|-------------------|
|--5----5----5------|
|--x----x----x------|
|--3----3----3------|
|-------------------|

Guitar 2
|----------------------|
|----------------------|
|----------------------|
|----------------------|
|----------------------|
|--------------6-7-8---|
and I feel that I've strayed to long

pre-chorus: Guitar 1
|-----------------------------------------------|
|----------------------------------10-------10--|
|-----------------------------------------------|
|--10h12-12-12--10h12-12-12--10-10----10-10-----|(x2)
|-----------------------------------------------|
|-----------------------------------------------|
And darkness is fading in
And darkness is real

guitar 2
|-----------------------------------|
|-----------------------------------|
|-----------------------------------|
|--------------------------5-55-55--|
|--------------------------5-55-55--|
|--------------------------5-55-55--|
PM                         . .. ..
chorus: both
|-----------------------------|
|-----------------------------|
|-----------------------------|
|--0--8880--7860--8880---789--|
|--0--8880--7860--8880---789--|
|--0--8880--7860--8880---789--|

|----------------------------#14#--|
|----------------------------------|
|----------------------------------|
|--0--8880--7860--8880---678-------|
|--0--8880--7860--8880---678-------|
|--0--8880--7860--8880---678-------|
Wooooo, oh, oh, oh, oh, oh, oh,
Oh, oh, oh, oh my eyes.
Wooooo, oh, oh, oh, oh, oh, oh,
Oh, oh, oh, oh closing slowly.
I try!

pre-verse:
|------------------------8--|
|---------------------------|
|--7---------------7--------|
|--x--7-5-3-2-3----x--------|(x2)
|--5------------5--5--------|
|---------------------------|
PM    . . . . . .

Verse: Guitar 1
|-------------------|
|-------------------|
|--7----7----5------|
|--x----7----5------|
|--5----5----3------|
|-------------------|

Guitar 2
|------------------------17--|
|----------------------------|
|-------------12h14-14-------|
|----------------------------|
|----------------------------|
|----------------------------|
Fate, seams to recreate.

Guitar 1
|-------------------|
|-------------------|
|--5----5----5------|
|--x----x----x------|
|--3----3----3------|
|-------------------|

guitar 2
|---------------------------------------|
|---------------------------------------|
|--------------------12p10--------------|
|--------------------------12-10--------|
|--------------------------------12-10--|
|---------------------------------------|
I Just Can not Escape

Guitar 1
|-------------------|
|-------------------|
|--7----7----7------|
|--x----x----x------|
|--5----5----5------|
|-------------------|

Guitar 2
|--------------------------------|
|--------------------------------|
|---------------12-10----12-10---|
|---------------------12-------12|
|--------------------------------|
|--------------------------------|
Something holds me down
And makes me

Guitar 1
|-------------------|
|-------------------|
|--5----5----5------|
|--5----5----5------|
|--3----3----3------|
|-------------------|

Guitar 2
|---------------------|
|---------------------|
|---------------------|
|---------------------|
|---------------------|
|--------------6-7-8--|
act a way I can't explain

Guitar 1
|--------------------|---------------|
|--------------------|---------------|
|--7----7----7----7--|--5----5----5--|
|--x----x----x----x--|--x----x----x--|
|--5----5----5----5--|--3----3----3--|
|--------------------|---------------|

Guitar 2
|--------------------|----|---------|
|--------------------|----|---------|
|--------------------|----|---------|
|--10-12-10----------|(x7)|---------|
|----------12-11-10--|----|---------|
|--------------------|----|--6-7-8--|
PM .  . .  .  .  .
Even now I can fell it coming
over me choking me
As I'm falling behind
Guitar 1
|----------------|
|----------------|
|--7--7--77------|
|--x--x--77------|
|--5--5--55------|
|----------------|

Guitar 2
|-----------17~--|
|----------------|
|----------------|
|----------------|
|----------------|
|----------------|
you can say you know me

 Guitar 1
|-------------------|
|-------------------|
|--5----5----5------|
|--x----x----x------|
|--3----3----3------|
|-------------------|

Guitar 2
|----------------------|
|----------------------|
|----------------------|
|----------------------|
|----------------------|
|--------------6-7-8---|
but you have no clue what my dreams
could show you.

pre-chorus: Guitar 1
|-----------------------------------------------|
|----------------------------------10-------10--|
|-----------------------------------------------|
|--10h12-12-12--10h12-12-12--10-10----10-10-----|(x2)
|-----------------------------------------------|
|-----------------------------------------------|
And darkness is fading in
And darkness is real

guitar 2
|-----------------------------------|
|-----------------------------------|
|-----------------------------------|
|--------------------------5-55-55--|
|--------------------------5-55-55--|
|--------------------------5-55-55--|
PM                         . .. ..

chorus: both
|-----------------------------|
|-----------------------------|
|-----------------------------|
|--0--8880--7860--8880---789--|
|--0--8880--7860--8880---789--|
|--0--8880--7860--8880---789--|

|----------------------------#14#--|
|----------------------------------|
|----------------------------------|
|--0--8880--7860--8880---678-------|
|--0--8880--7860--8880---678-------|
|--0--8880--7860--8880---678-------|
Wooooo, oh, oh, oh, oh, oh, oh,
Oh, oh, oh, oh my eyes.
Wooooo, oh, oh, oh, oh, oh, oh,
Oh, oh, oh, oh closing slowly.
I try!

bridge: Guitar 1
|-----------------------------------------------|
|----------------------------------10-------10--|
|-----------------------------------------------|
|--10h12-12-12--10h12-12-12--10-10----10-10-----|(x4)
|-----------------------------------------------|
|-----------------------------------------------|
I!
Can't!
Can't Wait! (tell me what you see)

on last time, last note:
guitar 2
|--------|
|--15----|
|--17^---|
|--------|
|--------|
|--------|

Guitar 1
|-----------------------------------------------|
|----------------------------------10-------10--|
|-----------------------------------------------|
|--10h12-12-12--10h12-12-12--10-10----10-10-----|(x4)
|-----------------------------------------------|
|-----------------------------------------------|
 Guitar 2
|------------------------|
|------------------------|
|------------------------|
|--33333335555522222222--|
|--33333355555522222222--|
|--33333355555522222222--|
PM ....................
I feel something deep inside me
I feel deep in side!

Guitar 1
|----------------------------|
|----------------------------|
|--7-------5-------9---------|
|--x-------x-------x------210|(x2)
|--5-------3-------7------210|
|-------------------------210|

guitar 2
|-----------------------------|
|-----------------------------|
|-----------------------------|(x2)
|--555555--333333--777777--210|
|--555555--333333--777777--210|
|--555555--333333--777777--210|
I feel somethin' deep inside me
And I can't let this go
I feel something deep inside me
And I can't let this go

Guitar 1 (x2)
|-------------------------|
|-------------------------|
|--141414141414--19-19-19-|
|--x-x-x-x-x-x---x--x--x--|(x2)
|--121212121212--17-17-17-|
|-------------------------|

|------------------------------|
|------------------------------|
|--191919-1414/20202020202020--|
|--x-x-x--x-x--x—x-x-x-x-x-x---|
|--171717-1212/18181818181818--|
|------------------------------|

guitar 2
|----------------------------|
|----------------------------|
|----------------------------|(x6)
|--5------3-------7-------2--|
|--5------3-------7-------2--|
|--5------3-------7-------2--|
Lies!
As I try to steer clear
I try to stay sober
This is taking me over
And my dreams complicate it...

Guitar 1
|---------8--|
|---------x--|
|--7------7--|
|--x--xx--x--|(x3)
|--5--xx--5--|
|-----xx-----|

Guitar 2
|---------------------------|
|---------------------------|
|---------------------------|
|--------------3p2----------|(x2)
|------------------4p3------|
|----------------------5p4--|
I just cannot let this go!
I tried so many times to tell you!
I just can not let this go

Guitar 1
|--------------------------|
|--------------------------|
|------7------9------7-----|
|--00--x--00--x--00--x--5--|
|--00--5--00—-7--00--5--5--|
|--00-----00-----00-----5--|
PM ..     ..     ..
I just cannot win

Guitar 1
|----------------------------------------|
|----------------------------------------|
|----------------------------------------|
|----------------------------------------|(x4 without guitar 2)
|--14-12-14-12-14-12--12-10-12-10-12-10--|(x4 with guitar 2)
|----------------------------------------|

Guitar 2
|----------------------------------10--------|
|--10-------------------10-------------------|
|-----10-10—9-10-9----------10-10-----10-10--|
|--------------------------------------------|(x4)
|--------------------------------------------|
|--------------------------------------------|
I see you
I see you
Falling away
I see you

(No guitars)killing me softly

Guitar 1
|----------------------------------------|
|----------------------------------------|
|----------------------------------------|
|----------------------------------------|
|--14-12-14-12-14-12--12-10-12-10-12-10--|(x4)
|----------------------------------------|

Guitar 2
|----------------------------------10--------|
|--10-------------------10-------------------|
|-----10-10—9-10-9----------10-10-----10-10--|
|--------------------------------------------|(x4)
|--------------------------------------------|
|--------------------------------------------|
I see you
I see you
Falling away
I see you

Guitar 1
|------------------------|
|------------------------|
|------------------------|(x4 without guitar 2)
|-------7--------000-----|then
|----7----8-7----000-----|(x4 with guitar 2)
|--7----------7--000-----|
PM . . .  . . .  ...

Guitar 2
|-------------|
|-------------|
|---14141414--|
|---14141414--|(x4)
|---12121212--|
|-------------|
Don't take what's in front of me
Open eyes can see
I have everything
Tell you Don't take what's in front of me
Tell you don't take what's in me!

either guitar
|---------------------|
|--13-13-12(x3)-15-15-|
|--14-14-14-----14-14-|
|---------------------|
|---------------------|
|---------------------|

chorus: Guitar 1
|-----------------------------|
|-----------------------------|
|-----------------------------|
|--0--8880--7860--8880---789--|
|--0--8880--7860--8880---789--|
|--0--8880--7860--8880---789--|

|-----------------------------|
|-----------------------------|
|-----------------------------|
|--0--8880--7860--8880---678--|
|--0--8880--7860--8880---678--|
|--0--8880--7860--8880---678--|

Guitar 2
|------------------------------------------|
|------------------------------------------|
|------------------------------------------|
|--0--8880--7860--8880---99-111111-131313--|
|--0--8880--7860--8880---xx-x-x-x--x-x-x---|
|--0--8880--7860--8880---77-9-9-9--111111--|

|---------------------------------------------|
|---------------------------------------------|
|-131313131313-11111111-999-7777777777777777--|
|-x-x-x-x-x-x--x-x-x-x--xxx-xxxxxxxxxxxxxxxx--|
|-111111111111-9-9-9-9--777-5555555555555555--|
|---------------------------------------------|
Lies! Which one lied.
And I feel this come away.
way oh, oh, oh, oh.
That's what I try

Intrulude
Guitar 1
|----------------------------------------|
|----------------------------------------|
|--7(x32)--7(x6)--7(x16)--7(x6)--7(x16)--|
|----------------------------------------|
|----------------------------------------|
|----------------------------------------|
PM .              .              .

|--------------------------------|
|---------5-------5(x6)----------|
|--7(x6)--7(x6)-----------7(x6)--|four times with palm mute, and twice
|--------------------------------|without. Then twice with guitar 2
|--------------------------------|
|--------------------------------|
Wooooo, oh, oh, oh, oh, oh, oh,
Oh, oh, oh, oh.
Wooooo, oh, oh, oh, oh, oh, oh,
Oh, oh, oh, oh.
Wooooo, oh, oh, oh, oh, oh, oh,
Oh, oh, oh, oh.
Wooooo, oh, oh, oh, oh, oh, oh,
Oh, oh, oh, oh.

Guitar 2 (guitar 1 repeats above)
|------------8-------------------8--|-----------|
|------------x-------------------x--|--16-/17---|
|--7----7----7----7----7----7----7--|--18^/19^--|
|--x----x----x----x----x----x----x--|-----------|
|--5----5----5----5—---5----5----5--|-----------|
|-----------------------------------|-----------|
I see you walking away
Dreams may fall more everyday
But I see you walking away

chorus: Guitar 1
|-----------------------------|
|-----------------------------|
|-----------------------------|
|--0--8880--7860--8880---789--|
|--0--8880--7860--8880---789--|
|--0--8880--7860--8880---789--|

|-------------------------------------|
|-------------------------------------|
|-------------------------------------|
|--0--8880--7860--888-88-88-88---678--|
|--0--8880--7860--888-88-88-88---678--|
|--0--8880--7860--888-88-88-88---678--|

Guitar 2
|---------------------------------------|
|---------------------------------------|
|------------------------9999/11111111--|
|--0--8880--7860--8880---xxxx-x-x-x-x---|
|--0--8880--7860--8880---7777/9-9-9-9---|
|--0--8880--7860--8880------------------|

|-----------------------------------------|
|-----------------------------------------|
|--77777777-999977779999-99--99--99-------|
|--xxxxxxxx-xxxxxxxxxxxx-99--99--99--678--|
|--55555555-777755557777-77--77--99--678--|
|------------------------------------678--|
and I'v tried
Tries to separate
Dreams from reality
Which to satisfy this wanting
Tried to stay righteous
Tried to stay sober
But then.
I
Can't
Win!

Outro: Guitar 1
|-----------------------------------------------|
|----------------------------------10-------10--|
|-----------------------------------------------|
|--10h12-12-12--10h12-12-12--10-10----10-10-----|(x3 slow down for
|-----------------------------------------------| each)
|-----------------------------------------------|
And I know you,
And I know you              |Gt.2-could-also-play-this-|
|------------------------------------------------------|
|------------------------------------------------------|
|----------------------------9-10-9-10-9-10-9-10-9-10--|
|--10h12-12-12--10h12-12-12----------------------------|
|------------------------------------------------------|
|------------------------------------------------------|
And I know you
|Both guitars-------|
|-------------------|
|-------------------|
|-------------------|
|---0--------------0|
|---0-(drum roll)--0|
|---0--------------0|
Lie!

End.

P.S. I have almost finished a "don't you fake it" album tab. I should have that out at 
Fri/Oct/20/2006, maybe monday of the next week.

If anyone know 'False Pretence" e-mail to me at joanne@leapsafely.com

Enjoy
Добавлено: 14.06.2012
Другие материалы по этой песне:

Страница создана 24.02.2012
http://primanota.ru/the-red-jumpsuit-apparatus/grim-goodbye-chords.htm
Привет, Гость.
Предлагаем пройти революционный курс по гитаре.
Подарок от PrimaNota.Ru, забирай!