PrimaNota.ru - самый крупный в мире бесплатный архив песенных текстов, аккордов, табулатур и нот


The Red Jumpsuit Apparatus - False Pretence - таба, видео

Регистрация Запомнить меня
Войти через:  Facebook Google Twitter Vk Yandex Mail.ru

The Red Jumpsuit Apparatus - False Pretence - таба, видео

Печатать
Просмотров: 246
The Red Jumpsuit Apparatus
False Pretence
Don't you fake it
standard

Intro:
|-------------------------------------------------|
|-------------------------------------------------|
|--555/888/121212\1010\88/1010--555/888\33333333--|
|--xxx-xxx-x-x-x--x-x--xx-x-x---xxx-xxx-xxxxxxxx--|
|--333/666/101010\8-8-\66/8-8---333/666\11111111--|
|-------------------------------------------------|

|--------------------------------------------|
|--------------------------------------------|
|--555/888/121212\1010\88/1010--555/888---3--|
|--xxx-xxx-x-x-x--x-x--xx-x-x---xxx-xxx-x-3--|
|--333/666/101010\8-8-\66/8-8---333/666-x-1--|
|---------------------------------------x----|

Verse:
(Begin with some feedback until “set on false pretence”)
|-----------|-------------|----|----------------------|
|-----------|-------------|----|----------------------|
|--55-5-33--|-33-3-33-7-5-|(x3)|--33333333-5555/7777--|
|--55-5-33--|-xx-x-xx-----|----|--33333333-xxxx/xxxx--|
|--33-3-11--|-11-1-11-----|----|--11111111-3333/5555--|
|-----------|-------------|----|----------------------|
PM                                .......

Chorus
|------------------|----|------------|
|------------------|----|------------|
|--5-33-8-55-3-55--|----|--33333333--|
|--5-33-8-55-3-55--|(x2)|--33333333--|
|--3-11—6-33-1-33--|----|--11111111--|
|------------------|----|------------|

Verse:
|--------------------------------|
|--------------------------------|
|--555555--7-5-5-555555--7-5--3--|
|--555555--------555555----------|(x2)
|--333333--------333333----------|
|--------------------------------|
PM ......        ......

|-----------|-------------|----|----------------------|
|-----------|-------------|----|----------------------|
|--55-5-33--|-33-3-33-7-5-|(x3)|--33333333-5555/7777--|
|--55-5-33--|-xx-x-xx-----|----|--33333333-xxxx/xxxx--|
|--33-3-11--|-11-1-11-----|----|--11111111-3333/5555--|
|-----------|-------------|----|----------------------|

Chorus

Bridge “I can talk”
|-----------------------|------------------------|----|--15~--|
|-----------------------|------------------------|----|-------|
|--55----33-33-8\7-8\7--|--55----33-33-10\8-7/8--|----|-------|
|--55-66-33-33-x-x-x-x--|--55-66-33-33-x--x-x-x--|(x2)|-------|
|--33-66-11-11—6\5-6\5--|--33-66-11-11-8-\6-5/6--|----|-------|
|-----44----------------|-----44-----------------|----|-------|

|-----------------------|------------------------|----|-----------|
|-----------------------|------------------------|----|-----------|
|--55----33-33-8\7-8\7--|--55----33-33-10\8-7/8--|----|-55--------|
|--55-66-33-33-x-x-x-x--|--55-66-33-33-x--x-x-x--|(x2)|-55-6-6-5--|
|--33-66-11-11—6\5-6\5--|--33-66-11-11-8-\6-5/6--|----|-33-6-6-5--|
|-----44----------------|-----44-----------------|----|----4-4-3--|

|---------------------|
|---------------------|
|-5~~~---3~~~---------|
|-5~~~---3~~~--xxxxx--|
|-3~~~---1~~~--xxxxx--|
|--------------xxxxx--|

Chorus

Outro:
|-------------------------------------------------|
|-------------------------------------------------|
|--555/888/121212\1010\88/1010--555/888\33333333--|
|--xxx-xxx-x-x-x--x-x--xx-x-x---xxx-xxx-xxxxxxxx--|
|--333/666/101010\8-8-\66/8-8---333/666\11111111--|
|-------------------------------------------------|

|-------------------------------------------------|
|-------------------------------------------------|
|--555/888/121212\1010\88/1010--555/888---3-3333--|
|--xxx-xxx-x-x-x--x-x--xx-x-x---xxx-xxx-x-3-3333--|
|--333/666/101010\8-8-\66/8-8---333/666-x-1-1111--|
|---------------------------------------x---------|
Добавлено: 10.07.2012
Другие материалы по этой песне:
  • Аккорды и текст

Страница создана 10.07.2012
http://primanota.ru/the-red-jumpsuit-apparatus/false-pretence-chords.htm
Привет, Гость.
Предлагаем пройти революционный курс по гитаре.
Подарок от PrimaNota.Ru, забирай!