PrimaNota.ru - самый крупный в мире бесплатный архив песенных текстов, аккордов, табулатур и нот


The Red Jumpsuit Apparatus - Outside - текст песни, таба, видео

Регистрация Запомнить меня
Войти через:  Facebook Google Twitter Vk Yandex Mail.ru

The Red Jumpsuit Apparatus - Outside - текст песни, таба, видео

Печатать
Просмотров: 252
Новый альбом группы 'Черный Кузнец' по культовому сериалу 'Сверхъестественное'!
Авторы музыки: Aaron Lewis
Авторы текста: Aaron Lewis
i was bored one day and this song is helping me get through a heartbreak so i thought
not tab it cuz i kinda know how to play it.. so here it is.. these are really just the
you'll have to figure out the strumming pattern and everything but it's pretty simple if 
just listen to the song

----------------------------------------------------------------------------
                             OUTSIDE - The Red Jumpsuit Apparatus
----------------------------------------------------------------------------
Tabbed by: rocker0719
Email: rocker0719@aim.com

Tuning: drop c

--INTRO--
|----------------------------------|
|---------6-----(4)-----(6)--------|
|---5-----5-----(3)-----(5)--------|
|---7-----5------3-------5---------|
|---5-----3------3-------5---------|
|---0------------3-------5---------|

-VERSE--
repeat the intro 4 times

--CHORUS--
|---------------------------------------|
|---(1)-----(4)-----(6)-----(6)---------|
|---(0)-----(3)------5------(5)---------|
|----0-------3-------5-------5----------| (repeat once)
|----0-------3-------3-------5----------|
|----0-------3---------------5----------|

--BRIDGE--
repeat intro

--VERSE--
repeat intro 4 times

--CHORUS--
(note: a bit of a strumming change)

--VERSE--
repeat intro 4 times (note: first two times, play aggresivley, second two times, play soft)

--CHORUS--
end on the last chord of the chorus:
|-----------|
|----(6)----|
|----(5)----|
|-----5-----|
|-----5-----|
|-----5-----|

this is a really simple yet powerful song, i love it and it's been helping me get
some hard times. i hope this was helpful, just comment it or e-mail me for any problems or
thanks.
Добавлено: 19.07.2012
Другие материалы по этой песне:
  • Аккорды и текст

Страница создана 19.07.2012
http://primanota.ru/the-red-jumpsuit-apparatus/outside-chords.htm
Привет, Гость.
Предлагаем пройти революционный курс по гитаре.
Подарок от PrimaNota.Ru, забирай!