PrimaNota.ru - самый крупный в мире бесплатный архив песенных текстов, аккордов, табулатур и нот


The Front Bottoms - Handcuffs - таба, видео

Регистрация Запомнить меня
Войти через:  Facebook Google Twitter Vk Yandex Mail.ru

The Front Bottoms - Handcuffs - таба, видео

Печатать
Просмотров: 34
(/) Slide Up  (\) Slide Down  (h) Hammer On  (p) Pull Off  (b) Bend (r) Release (v) Vibrato
 
Intro:
 
E|---------------------
B|---------------------
G|---------------------
D|---------5-----------  x2
A|--5------3-----------
E|--3------------------
 
"See I was in handcuffs..."
E|---------------------
B|---------------------
G|---------------------
D|---------5-----------  x2
A|--5------3-----------
E|--3------------------
 
"Some prosecutor screams..."
E|-------------------------------------
B|-------------------------------------
G|-------------------------------------
D|----------------------5--------------
A|--2------7------5-----3-----5--------
E|--0------5------3-----------3--------
 
"See I lost my temper..."
E|---------------------
B|---------------------
G|---------------------
D|---------5-----------  x2
A|--5------3-----------
E|--3------------------
 
"And he started..."
E|-------------------------------------
B|-------------------------------------
G|-------------------------------------
D|----------------------5--------------
A|--2------7------5-----3-----5--------
E|--0------5------3-----------3--------
 
Lead:
E|---------------------------------------------------------------
B|---------------------------------------------------------------
G|----------7--9--7-----9--7-------------------7--9--7-----------
D|--5--7h9-----------9--------9--------5--7h9-----------9--7--5--
A|---------------------------------------------------------------
E|---------------------------------------------------------------
 
Rhythm:
E|------------------------
B|------------------------
G|------------------------
D|--5---------------------
A|--3------2------7-------
E|---------0------5-------
 
"With my pain came..."
E|---------------------
B|---------------------
G|---------------------
D|------------5--------  x2
A|--5---------3--------
E|--3------------------
 
Lead:
"He stops for a moment..."
E|-----------------------------------------
B|-----------------------------------------
G|-----------------------------------------
D|--2--4--5--9--7--5--2--0--5-----------5--
A|-----------------------------5--7--5-----
E|-----------------------------------------
 
Rhythm:
E|-------------------------------------
B|-------------------------------------
G|-------------------------------------
D|----------------------5--------------
A|--2------7------5-----3-----5--------
E|--0------5------3-----------3--------
 
Lead:
E|---------------------------------------------------------------
B|---------------------------------------------------------------
G|----------7--9--7-----9--7-------------------7--9--7-----------
D|--5--7h9-----------9--------9--------5--7h9-----------9--7--5--
A|---------------------------------------------------------------
E|---------------------------------------------------------------
 
Rhythm:
E|------------------------
B|------------------------
G|------------------------
D|--5---------------------
A|--3------2------7-------
E|---------0------5-------
 
"And that's how it happened..."
E|---------------------
B|---------------------
G|---------------------
D|---------5-----------  x2
A|--5------3-----------
E|--3------------------
 
Lead:
"They called me a monster"
E|-----------------------------------------
B|-----------------------------------------
G|-----------------------------------------
D|--2--4--5--9--7--5--2--0--5-----------5--
A|-----------------------------5--7--5-----
E|-----------------------------------------
 
Rhythm:
E|-------------------------------------
B|-------------------------------------
G|-------------------------------------
D|----------------------5--------------
A|--2------7------5-----3-----5--------
E|--0------5------3-----------3--------
 
Lead (actually played on trumpet):
E|----------------------------------------------
B|----------------------------------------------
G|--------------5--7----------------7--5--------
D|--5--7--9--5--------9----5--7--9--------7--5--
A|----------------------------------------------
E|----------------------------------------------
 
E|----------------------------------------------
B|----------------------------------------------
G|-----------7--5--7----------------7--5--------
D|--5--7--9-----------9----5--7--9--------7--5-- x2
A|----------------------------------------------
E|----------------------------------------------
 
Rhythm:
E|------------------------------
B|------------------------------
G|------------------------------
D|--9---9---7--7--------5------- x6
A|--7---6---5--5--------3---5---
E|--------------------------3---
 
E|---------------------
B|---------------------
G|---------------------
D|---------5-----------  x2
A|--5------3-----------
E|--3------------------
 
Lead:
"I hope that they..."
E|-----------------------------------------
B|-----------------------------------------
G|-----------------------------------------
D|--2--4--5--9--7--5--2--0--5-----------5--
A|-----------------------------5--7--5-----
E|-----------------------------------------
 
Rhythm:
E|-------------------------------------
B|-------------------------------------
G|-------------------------------------
D|----------------------5--------------
A|--2------7------5-----3-----5--------
E|--0------5------3-----------3--------
 
Lead:
E|--------------------------------------------------------------------------------------------------------------
B|--------------------------------------------------------------------------------------------------------------
G|----------7--9--7-----9--7-----7-------------------------------7--9--9b--7------------------------------------
D|--5--7h9-----------9--------9-----9--7--5h7--9--9------5--7h9---------------9--5--5--5--5--5--2--2--2--2--2--5
A|--------------------------------------------------------------------------------------------------------------
E|--------------------------------------------------------------------------------------------------------------
 
Rhythm:
E|------------------------
B|------------------------
G|------------------------
D|--5---------------------
A|--3------2------7-------
E|---------0------5-------
 
E|---------------------
B|---------------------
G|---------------------
D|---------------------
A|--5------2----5------
E|--3------0----3------
Добавлено: 26.10.2015
Другие материалы по этой песне:
  • Аккорды и текст

Страница создана 26.10.2015
http://primanota.ru/the-front-bottoms/handcuffs-chords.htm
Привет, Гость.
Предлагаем пройти революционный курс по гитаре.
Подарок от PrimaNota.Ru, забирай!