PrimaNota.ru - самый крупный в мире бесплатный архив песенных текстов, аккордов, табулатур и нот


The Front Bottoms - Back On Top (album) - бас-таба, видео

Регистрация Запомнить меня
Войти через:  Facebook Google Twitter Vk Yandex Mail.ru

The Front Bottoms - Back On Top (album) - бас-таба, видео

Печатать
Просмотров: 53
Уроки эстрадного вокала в Санкт-Петербурге
The Front Bottoms - Back on Top

Tabbed by: Ash (XxThreeCheersxX)
E-mail: burdickash@gmail.com

Tuning: Standard

NOTE: All of these songs were tabbed by ear by me, and posted on this site individually.  Please do not
steal my work!  All of the songs are in standard tuning.

Enjoy!

TRACKLIST
1. MOTORCYCLE
2. SUMMER SHANDY
3. COUGH IT OUT
4. HELP
5. LAUGH TIL I CRY
6. HISTORIC CEMETERY
7. THE PLAN (FUCK JOBS)
8. GINGER
9. 2YL
10. WEST VIRGINIA
11. PLASTIC FLOWERS




1. MOTORCYCLE

Main Riff x 4
G|---------------------------------------|
D|---------------------------------------|
A|----------5~-----------------3----2----|
E|-3~----------------5~------------------|

Verse I
G|--------------------------------------------|
D|-------------------4--5---------------------|
A|-------2-----5--5-----------------3----2----| x 3
E|-3--3-----3--------------5~-----------------|

"And acting cool"
G|--------------------------------------------------------------------------------------------|
D|--------------------------------------------------------------------------------------------|
A|-------------3----2----------------3----2----------------3----2----------------3----2-------|
E|-3--3--3--3------------5--5--5--5------------3--3--3--3------------5--5--5--5------------3--|

Chorus
G|-------------------------------------------------------------------------------------------------|
D|-------------------------------------------------5--5--5--5--5--5--5--5--------------------------|
A|-3--3--3--3--3--3--3--3--5--5--5--5--5--5--5--5--------------------------3--3--3--3--3--3--3--3--|
E|-------------------------------------------------------------------------------------------------|

G|-------------------------------------------------------2--2--4--4--7--7--5--5--5--5--5--5--5--5--|
D|-------------------------------------------------5--5--------------------------------------------|
A|-3--3--3--3--3--3--3--3--5--5--5--5--5--5--5--5--------------------------------------------------|
E|-------------------------------------------------------------------------------------------------|

"You and me, me and you"
G|----------5----4-------------4----2-----------------------------------------------|
D|---------------------------------------5~-----------------------------------------|
A|-3--3--3------------5--5--5---------------------5~--------3~--------/15--15--14--\|
E|----------------------------------------------------------------------------------|

Main Riff x 3

Verse II
G|-----------------------------------------------------------|
D|------------------12--12--14------------------10--10--9----|
A|-/10--10--10--10--------------12----12----12---------------| x 3
E|-----------------------------------------------------------|

"C'mon people would I lie to you?"
G|-----------------------------------------------------------------|
D|-----------------------------------------------------------------|
A|-10--10--10--10-/15--15--14--14--12--12--12--12-/15--15--14--14--|
E|-----------------------------------------------------------------|

G|-------------------------------------------------------------------------------------------------------|
D|-------------------------------------------------------------------------------------------------------|
A|-10--10--10--10-/15--15--14--14--12--12--12--12--12--12--12--12--14--14--14--14--14--14--14--14--14----|
E|-------------------------------------------------------------------------------------------------------|

Chorus II (same as before, but with the last 3 notes removed)
G|-------------------------------------------------------------------------------------------------|
D|-------------------------------------------------5--5--5--5--5--5--5--5--------------------------|
A|-3--3--3--3--3--3--3--3--5--5--5--5--5--5--5--5--------------------------3--3--3--3--3--3--3--3--|
E|-------------------------------------------------------------------------------------------------|

G|-------------------------------------------------------2--2--4--4--7--7--5--5--5--5--5--5--5--5--|
D|-------------------------------------------------5--5--------------------------------------------|
A|-3--3--3--3--3--3--3--3--5--5--5--5--5--5--5--5--------------------------------------------------|
E|-------------------------------------------------------------------------------------------------|

"You and me, me and you"
G|----------5----4-------------4----2-----------------------------------------------|
D|---------------------------------------5~-----------------------------------------|
A|-3--3--3------------5--5--5---------------------5~--------3~----------------------|
E|----------------------------------------------------------------------------------|

Bridge
G|-------------------------------------------------------------------------------------------------|
D|-------------------------------------------------------------------------------------------------|
A|-------------------------2--2--2--2--2--2--2--2--3--3--3--3--3--3--3--3--------------------------| x 3
E|-0--0--0--0--0--0--0--0--------------------------------------------------3--3--3--3--3--3--3--3--|

G|---------------------------------------------------------------------------------------------------------|
D|---------------------------------------------------------------------------------------------------------|
A|-------------------------2--2--2--2--2--2--2--2--3--3--3--3--3--3--3--3-/10--10--10--10--10--10--10--10--|
E|-0--0--0--0--0--0--0--0----------------------------------------------------------------------------------|

-Choir and vocals only-

Come in at "you and me, me and you"
G|--------------------------------------------------------------------------------------|
D|-------------------------------------------------5~-----------------------------------|
A|-3--3--3--3--3--3--3--3--5--5--5--5--5--5--5--5------------5~--------3~---------------|
E|--------------------------------------------------------------------------------------|

Chorus II /// End




2. SUMMER SHANDY

Intro
G|--------------------------------------------------------------------------------|
D|--------------------------------------------------------------------------------|
A|--------------------------------------------------------------------------------|
E|-15\3--3--3--3--3--3--3--2--3---------------3--3--3--3--3--3--3--2--3/15--------|

Verse I
G|----------------------------------------------------------|
D|----------------------------------------------------------|
A|----------------------------------12--12----------10--10--| x 3
E|-3--3--3--3--3--3--3--3/--14--14----------12--12----------|

G|----------------------------------------------------------|
D|----------------------------------------------------------|
A|----------------------------------12--12--10\-------------| x 3
E|-3--3--3--3--3--3--3--3/--14--14--------------------------|

Chorus (listen closely for a better sense of rhythm)
G|----------------------------------------------------------------------------------5----|
D|-------------------------------------------------------------------4--7--4-----2-------|
A|---------------------5--------3-3--3--2--0----------------------5-----------3----------|
E|-3----3----3-3--3---------------------------3----3----3-3--3---------------------------|

G|----------------------------------------------------------|
D|----------------------------------------------------------|
A|----------------------------------12--12----------10--10--| 
E|-3--3--3--3--3--3--3--3/--14--14----------12--12----------|

G|-------------------------------------------5----|
D|----------------------------4--7--4-----2-------|
A|-------------------------5-----------3----------|
E|-3--3--3--3--3--3--3--2-------------------------|

Post-Chorus
G|-------------------------|
D|-------------------------|
A|-------------------------|
E|-3--3--3--3--3--3--3--2--|

Verse II
G|----------------------------------------------------------|
D|----------------------------------------------------------|
A|----------------------------------12--12----------10--10--| x 2
E|-3--3--3--3--3--3--3--3/--14--14----------12--12----------|

G|-----------------------------------------------------------------------------------------------|
D|-----------------------------------------------------------------------------------------------|
A|---------0--2----2----3----3--4--5----5--3-----------------------------------12--12--10--------|
E|-3----3-------------------------------------3--3--3--3--3--3--3--3/--14--14--------------------|

Chorus 

"Yeah that would be great, that would be beach house living"
G|------------------------------------------------------------------------------------------|
D|-5--4--2----------------------------------------------------------------------------------|
A|----------5--2------2-3----3--3-------------------------2----2--2--3----3--4--5--3--2-----|
E|---------------------------------3--3--3--3--0----0--0---------------------------------5--|

G|----------------------------------------------------------------------------------------------|
D|----------------------------------------------------------------------------------------------|
A|-10--10--12--14--14-\2----3----3--3-------------------------2----2--2--3----3--4--5--3--2-----|
E|-------------------------------------3--3--3--3--0----0--0---------------------------------5--|

Post-Chorus

Funky Bass Riff
G|----------------------------------|
D|----------------------------------|
A|-------1--2--4--5--1--2-----------|
E|-2--3--------------------3--------|

Bridge
G|---------------------------------------------------------------------------------------------|
D|---------------------------------------------------------------------------------------------|
A|------------2----2--2--3----3--3-------------------------2--2--2--2--3--3--3--3--5--3--2-----|
E|-3----3--3------------------------3----3--3--0--0--0--0-----------------------------------5--|

G|---------------------------------------------------------------------------------------|
D|---------------------------------------------------------------------------------------|
A|-----------2--2-------3----3-------------------------2----2--2--3----3--3--5--3--2-----|
E|-3----3-------------------------3--3------0----0--0---------------------------------5--|

Final Chorus
G|----------------------------------------------|
D|----------------------------------------------|
A|----------------------------------------------|
E|-3~----------------/10--10--10--10--8~--------|

G|----------------------------------------------------------|
D|----------------------------------------------------------|
A|----------------------------------12--12----------10--10--|  x 2
E|-3--3--3--3--3--3--3--3/--14--14----------12--12----------|

G|-------------------------------------------5----|
D|----------------------------4--7--4-----2-------|
A|-------------------------5-----------3----------|
E|-3--3--3--3--3--3--3--2-------------------------|

"Yeah that would be great, that would be beach house living"
G|------------------------------------------------------------------------------------------|
D|-5--4--2----------------------------------------------------------------------------------|
A|----------5--2------2-3----3--3-------------------------2----2--2--3----3--4--5--3--2-----|
E|---------------------------------3--3--3--3--0----0--0---------------------------------5--|

G|----------------------------------------------------------------------------------|
D|----------------------------------------------------------------------------------|
A|-10--10--12--14--14-\2----3----3--3-------------------------2----2--2--3----3--4--|
E|-------------------------------------3--3--3--3--0----0--0------------------------|

(listen closely for this part)
G|---------------------------------------------------------------------|
D|-------------------------9--9--9--9--7--7--4--4----------------------|
A|-5--5--5--5--5--5--5--5/-------------------------3~------------------|
E|---------------------------------------------------------------------|

Outro
G|---------------------------------------------------------------------|
D|---------------------------------------5~----------------------------|
A|-------6--6--6--5--5--5--3----3--------------------------------------|
E|-8--8----------------------------------3~----------------------------|




3. COUGH IT OUT

Come in right before the first chorus
G|-------------------------|
D|-------------------------|
A|-10-10-10-10-10-10-10-10-|
E|-------------------------|

Chorus 
G|---------------3---------------------------3------------------------5--3---------------|
D|----3--5----------3--2-3--------3--5----------3--2-3--------3--5----------3--2-3--3----|
A|-5-------3-------------------5-------3-------------------5-------3---------------------|
E|---------------------------------------------------------------------------------------|

"I am delusional with love"
G|--------------------------5--3--2--------------------------------|
D|---------7--5--3-------------------------------------------------|
A|-5----5-----------3----3-----------1----1~--------0-1--1--1--/5--|
E|-----------------------------------------------------------------|

Post-Chorus x 2
G|-------------------7-7-------------------|
D|----------------7----------8~------------|
A|-3-----5-----8---------------------------|
E|-----------------------------------------|

Verse II
G|-----------2--0---------------0--3--2--|
D|-3----3----------3---------------------|
A|--------------------3----3-------------| x 3
E|---------------------------------------|

G|---------------------------------------------------------------------------------------3--2--------|
D|-3~-----------------2--------------3~--------------5--5--5--5--5--5--5--5--5--5--5--5--------5--3--|
A|---------------3---------1----5--------------------------------------------------------------------|
E|---------------------------------------------------------------------------------------------------|

Chorus II
G|---------------3---------------------------3------------------------5--3---------------|
D|----3--5----------3--2-3--------3--5----------3--2-3--------3--5----------3--2-3--3----|
A|-5-------3-------------------5-------3-------------------5-------3---------------------|
E|---------------------------------------------------------------------------------------|

"I am delusional with love"
G|--------------------------5--3--2--------------------------------|
D|---------7--5--3-------------------------------------------------|
A|-5----5-----------3----3-----------1----1~--------0-1--1--1--/5--| x 2
E|-----------------------------------------------------------------|

Post-Chorus x 4

Bridge
G|-----------2--0--------------0--3--2------------------------------0--3--2--|
D|-3----3----------3------------------------------7--5--3--------------------|
A|--------------------3------3----------5----5-------------3------3----------| x 2
E|---------------------------------------------------------------------------|

"I just don't care"
G|-----------2--0--------------0--3--2------------2--0-----------------------------------3--2--0-----|
D|-3----3----------3--------------------3----3----------3--5----5----5----5----5----5-------------3--|
A|--------------------3------3-----------------------------------------------------------------------|
E|---------------------------------------------------------------------------------------------------|

Chorus I

End with Post-Chorus x 4




4. HELP

Intro
G|--------------------------------------|
D|--------------------------------------|
A|--------------------------------------|
E|-3~----------------/15~---------------|

G|--------------------------------------------|
D|-5--5--5--2---------------------------------|
A|---------------5----3--3--3--3--3--3--3--3--| x 3
E|--------------------------------------------|

G|--------------------------------------------|
D|-5--5--5--2---------------------------------|
A|---------------5----3--3--3--2--3--2--3--5--|
E|--------------------------------------------|

Verse I
G|----------------------------------------------------------------------------------------------|
D|-------------------------2--2--2--2-----------------------------------------------------------|
A|-------------------------------------5--5--5--5--3--3--3--3--3--3--3--3--3--3--3--3--3--3--3--| x 3
E|-3--3--3--3--3--3--3--3-----------------------------------------------------------------------|

G|----------------------------------------------------------------------------------------------|
D|-------------------------2--2--2--2-----------------------------------------------------------|
A|-------------------------------------5--5--5--5--3--3--3--3--3--3--3--3--3--3--3--3--5--5--5--|
E|-3--3--3--3--3--3--3--3-----------------------------------------------------------------------|

Chorus
G|--------------------------------------------|
D|-5--5--5--2---------------------------------|
A|---------------5----3--3--3--3--3--3--3--3--| x 3
E|--------------------------------------------|

G|--------------------------------------------|
D|-5--5--5--2---------------------------------|
A|---------------5----3--3--3--3--3--5--5--5--|
E|--------------------------------------------|

Post-Chorus
G|--------------------------------------------|
D|-5--5--5--2---------------------------------|
A|---------------5----3--3--3--3--3--3--3--3--| x 2
E|--------------------------------------------|

Verse II
G|-----------------------------------------------------------------------------------------|
D|-----------------2--2--2--2--------------------------------------------------------------|
A|-----------------------------5--5--5--5--3--3--3--3--3--3--3--3--3--3--3--3--3--3--3--3--|
E|-3~--------------------------------------------------------------------------------------|

G|----------------------------------------------------------------------------------------------|
D|-------------------------2--2--2--2-----------------------------------------------------------|
A|-------------------------------------5--5--5--5--3--3--3--3--3--3--3--3--3--3--3--3--5--5--5--|
E|-3--3--3--3--3--3--3--3-----------------------------------------------------------------------|

Chorus

Bridge
G|--------------------------------------------------------------------------------------------|
D|-2--2--2--2--2--2--2--2--------------------------5--5--5--2---------------------------------|
A|-------------------------5--5--5--5--5--5--5--5----------------5----3--3--3--3--3--3--3--3--| x 2
E|--------------------------------------------------------------------------------------------|

G|-----------------------------------------------------------------------------------------|
D|-2----2----2----2------------------------5--5--5--5--5--5--5--5--------------------------|
A|---------------------5----5----5----5----------------------------3--3--3--3--3--3--3--3--|
E|-----------------------------------------------------------------------------------------|

G|----------------------------------------------------------------------------------------------|
D|-------4-----------------------5--------------------7-----------------------4-----------------|
A|-2--2-----2--2--2--2--2--3--3-----3--3--3--3--5--5-----5--5--5--5--5--5--5-----5--5--5--5--5--|
E|----------------------------------------------------------------------------------------------|

G|------------------------8------7------5----|
D|-------------------5-----------------------|
A|-3--3--3--3--3--3--------------------------|
E|-------------------------------------------|

G|----------------------------------------------|
D|-5--5--5--2-----------------------------------|
A|---------------(5)----3--3--3--3--3--3--3--3--| x 3 (the 5 in parentheses isn't played, but implied; optional)
E|----------------------------------------------|

G|-------------------------------------------------------------------------|
D|-2--2--2--2--2--2--2--2--4--4--4--4--4--4--4--4--4--4--4--4--4--4--4--4--|
A|-------------------------------------------------------------------------|
E|-------------------------------------------------------------------------|

Verse III (come in partway through)
G|------------------------------------------------------------------------|
D|----------7--5~-----2~--------------------------------------------------|
A|-3--5--7-------------------3~---------------------------3~--------------|
E|------------------------------------------3~-----0~---------------------|

G|-------------------------------------------------------------------------------------------------|
D|-5--5--5--2--2--2--2--2-----------------------7--5--5--5--2--2--2--2--2--------------------------|
A|-------------------------3--3--3--3--3--5--7-----------------------------3--3--3--3--3--3--3--3--|
E|-------------------------------------------------------------------------------------------------|

G|-------------------------------------------------------------------------------------------------|
D|-5--5--5--2--2--2--2--2-----------------------7--5--5--5--2--2--2--2--2--------------------------|
A|-------------------------3--3--3--3--3--5--7-----------------------------3--3--3--3--3--5--5--5--|
E|-------------------------------------------------------------------------------------------------|

Final Chorus/Outro
G|--------------------------------------------|
D|-5--5--5--2---------------------------------|
A|---------------5----3--3--3--3--3--3--3--3--| x 3
E|--------------------------------------------|

G|--------------------------------------------|
D|-5--5--5--2---------------------------------|
A|---------------5----3--3--3--3--3--5--5--5--|
E|--------------------------------------------|

G|--------------------------------------------|
D|-5--5--5--2---------------------------------|
A|---------------5----3--3--3--3--3--3--3--3--| x 3
E|--------------------------------------------|

G|--------------------------------------------|
D|-5--5--5--2---------------------------------|
A|---------------5----3--3--3--2--3--2--3--5--|
E|--------------------------------------------|

G|----------------------------------------------|
D|-5--5--5--2-----------------------------------|
A|---------------(5)----3--3--3--3--3--3--3--3--| x 3
E|----------------------------------------------|

G|------------------------------------------------------------------|
D|-5--5--5--2-------------------------------------------------------|
A|---------------(5)----3--3--2--2----------------------------------|
E|----------------------------------5--5--2--2--3~-------------/15x-|





5. LAUGH TIL I CRY

Intro
G|---------------------------------------------------------------------|
D|---------------------------------------------------------------------|
A|-5~-------4----2~-----------------5~-------4----2~-------------------|
E|------------------------3~--------------------------------3----3--5--|

Verse I (come in at "You say you know me")
G|------------------------------------------|
D|----------4--2----------------------------|
A|-5~-------------5--2----------------------| x 2
E|----------------------2~--------3~--------|

G|-----------------------------------------------------------------------------|
D|-------------------------------------------------4--2------------------------|
A|-5~---------------2~-----------------5~-------5-------5-4-2~-----------------|
E|----------------------------3~-------------------------------------3----5----|

("But you're in my car, and I'm in my motorcycle")
G|-------------------------------------------------------------------------------|
D|-------------------------------------------------------------------------------|
A|-2~----------------------------------------------------------------4--4--7--7--|
E|-------------------5~----------------3~----------------3--3--5--5--------------|

Chorus ("I laugh till I cry, I party all of the time")
G|---------------------------------------------------------------------------------------------------|
D|-------------------------------------------------------------------------------------------5-------|
A|-5--5--5--5--5--5--5--5--------------------------------------------------------------5-7-9----7-9--|
E|-------------------------2--2--2--2--2--2--2--2--3--3--3--3--3--3--3--3--5--5--5--5----------------|

G|---------------------------------------------------------------------------------------------------|
D|-------------------------------------------------------------------------------------------4-7--4--|
A|-5--5--5--5--5--5--5--5----------------------------------------------------------------4-7---------|
E|-------------------------2--2--2--2--2--2--2--2--3--3--3--3--3--3--3--3--5--5--5--5--5-------------|

Post-Chorus
G|------------------------------------|
D|------------------------------------|
A|-5x----------------5x---------------|
E|------------------------------------|

Verse II
G|------------------------------------------|
D|----------4--2----------------------------|
A|-5~-------------5--2----------------------| x 4
E|----------------------2~--------3~--------|

"I would survive"
G|-------------------------|
D|-4--4--4--4--5--5--5--5--|
A|-------------------------|
E|-------------------------|

Chorus II (only difference from the first chorus is the first fill is missing)
G|-------------------------------------------------------------------------------------------------|
D|-------------------------------------------------------------------------------------------------|
A|-5--5--5--5--5--5--5--5--------------------------------------------------------------------------|
E|-------------------------2--2--2--2--2--2--2--2--3--3--3--3--3--3--3--3--5--5--5--5--5--5--5--5--|

G|---------------------------------------------------------------------------------------------------|
D|-------------------------------------------------------------------------------------------4-7--4--|
A|-5--5--5--5--5--5--5--5----------------------------------------------------------------4-7---------|
E|-------------------------2--2--2--2--2--2--2--2--3--3--3--3--3--3--3--3--5--5--5--5--5-------------|

Bridge
G|-----------------------------------------------------------------------------------------------|
D|-----------------------------------------------------------------------------------------------|
A|-----------------------------------------------------------------------------------------------|
E|-3x----3x----3x----3x----3x----3x----3x----3----0x----0x----0x----0x----0x----0x----0x----0----|

G|------------------------------------------------|
D|------------------------------------------------|
A|------------------------------------------------|
E|-3x----3x----3x----3x----3x----3x----3x---------|

G|-----------------------------------------------------------------------------|
D|-------------------------------------------------4--2------------------------|
A|-5~---------------2~-----------------5~-------5-------5-4-2~-----------------|
E|----------------------------3~-------------------------------------3~--------|

G|---------------------------------------------------------------|
D|-------------4------------------------------5------4------2----|
A|----------4---------7------4----2--2--2--5---------------------| x 3
E|-5--5--5-------------------------------------------------------|

G|---------------------------------------------------------------|
D|-------------4------------------------------5------4------2----|
A|----------4---------7------4-------------5---------------------| x 3
E|-5--5--5------------------------5--5--5------------------------|

"You were thinking about leaving"
G|-----------------------------------------------------------------------------|
D|-----------------------------------------------------------------------------|
A|-5~----------------/9~------------/10~---------------7--7--7--7--7--7--7--7--|
E|-----------------------------------------------------------------------------|

Final Chorus
G|-------------------------------------------------------------------------------------------------|
D|-------------------------------------------------------------------------------------------------|
A|-5--5--5--5--5--5--5--5--------------------------------------------------------------------------|
E|-------------------------2--2--2--2--2--2--2--2--3--3--3--3--3--3--3--3--5--5--5--5--5--5--5--5--|

G|---------------------------------------------------------------------------------------------------|
D|-------------------------------------------------------------------------------------------4-7--4--|
A|-5--5--5--5x---------------------------------------------------------------------------4-7---------|
E|-------------------------2--2--2--2--2--2--2--2--3--3--3--3--3--3--3--3--5--5--5--5--5-------------|

"You're in your car, I'm in my motorcycle"
G|-------------------------------------------------------------------------------------------------|
D|-------------------------------------------------------------------------------------------------|
A|-2--2--2--2--2--2--2--2--------------------------------------------------------------4--4--7--7--|
E|-------------------------5--5--5--5--5--5--5--5--3--3--3--3--3--3--3--3--3--3--5--5--------------|

G|-------------------------|
D|-------------------------|
A|-5--5--4--4--2--2--------|
E|-------------------5--5--|

Outro
G|-----------------------------------------------------------------------------------------------|
D|-----------------------------------------------------------------------------------------------|
A|-----------------------------------------------------------------------------------------------|
E|-3x----3x----3x----3x----3x----3x----3x----3----0x----0x----0x----0x----0x----0x----0x----0----|

G|------------------------------------------------|
D|------------------------------------------------|
A|------------------------------------------------|
E|-3x----3x----3x----3x----3x----3x----3x---------|




6. HISTORIC CEMETERY

Intro (come in after he stops singing)
G|---------------------------|
D|---------------------------|
A|---------------------------|
E|-1~------------------------|

G|-------------------------------------------------------------------------|
D|-------------------------------------------------------------------------|
A|-------------------------------------4----4--4----4----1----1--1----1----|
E|-1----1--1----1----4----4--4----4----------------------------------------|

G|------------------------------------------------------------------------------|
D|------------------------------------------------------------------------------|
A|-------------------------------------4----4--4----4----1----1--1--------------|
E|-1----1--1----1----4----4--4----4-----------------------------------4----1----|

Verse I (come in at "Now maybe it was not as serious as I made it sound")
G|------------------------------------------------------------------------------------------------|
D|------------------------------------------------------------------------------------------------|
A|-------------------------------------------------4--4--4--4--4--4--4--4-------------------------|
E|-1--1--1--1--1--1--1--1--4--4--4--4--4--4--4--4--------------------------6--6--6--4--6--6--4----|

Chorus ("Getting high and hanging out")
G|--------------------------------------------------------------------------------|
D|--------------------------------------------------------------------------------|
A|-4~-------4----4---/11~-------11----11----4~-------4----3-----------------------|
E|-------------------------------------------------------------4~-------4----4----|

G|------------------------------------------------------------------------------|
D|------------------------------------------------------------------------------|
A|-4~-------4----4---/11~-------11----10-------------------------------4~-------|
E|------------------------------------------1~-------3~-------4~----------------|

Verse II
G|------------------------------------------------------------------------------------------|
D|------------------------------------------------------------------------------------------|
A|---------------------------------------------4--4----4--4--4----4-------------------------| x 3
E|-1--1----1--1--1----1--4--4----4--4--4----4------------------------6--6--6--4--6--6--4----|

Chorus II (same as the first chorus)
G|--------------------------------------------------------------------------------|
D|--------------------------------------------------------------------------------|
A|-4~-------4----4---/11~-------11----11----4~-------4----3-----------------------|
E|-------------------------------------------------------------4~-------4----4----|

G|------------------------------------------------------------------------------|
D|------------------------------------------------------------------------------|
A|-4~-------4----4---/11~-------11----10-------------------------------4~-------|
E|------------------------------------------1~-------3~-------4~----------------|

Interlude
G|-----------------------------------------|
D|-----------------------------------------|
A|-3----3----3----3----3----4----3---------|
E|------------------------------------4----|

G|-----------------------------------------------------------------------------|
D|-----------------------------------------------------------------------------|
A|----------------------------4~-------6----6----6----6----6----8----6----3----|
E|-1~-------3~-------4~--------------------------------------------------------|

Chorus III 
G|--------------------------------------------------------------------------------|
D|---------------------6~-------6----3--------------------------------------------|
A|-4~-------4----4--6---------------------4~-------4----4--3----------------------|
E|------------------------------------------------------------4~-------4----4--1--|

G|----------------------------------------|
D|---------------------6~-------6----3----|
A|-4~-------4----4--6---------------------|
E|----------------------------------------|

"I don't need your reasons anymore"
G|----------------------------------------------------------------------------------------------|
D|----------------------------------------------------------------------------------------------|
A|-4~--------------------------4~---------------------------------4~----------------------------|
E|---------------4~--------------------------4~-----------------------------4~--------3~--------|

Bridge
G|---------------------------------------------------------------------------------|
D|---------------------------------------------------------------------------------|
A|---------------------------------------------------------------------------------|
E|-1----1----1----1----1----1----1----1----3----3----3----3----3----3----3----3----|

G|---------------------------------------------------------------------------------|
D|---------------------------------------------------------------------------------|
A|-----------3---------------------------------------3-----------------------------|
E|-4----4---------4----4----4----3----4----4----4---------4----4----4----3----4----|

"I put my wrong finger in the hot wax now"
G|---------------------------------------------------------------------------------|
D|---------------------------------------------------------------------------------|
A|---------------------------------------------------------------------------------|
E|-1----1----1----1----1----1----1----1----3----3----3----3----3----3----3----3----|

G|---------------------------------------------------------------------------------|
D|---------------------------------------------------------------------------------|
A|-----------3---------------------------------------5-----------------------------|
E|-4----4---------4----4----4----3----4----4----4---------4----4----4----3----4----|

"The last thing I need is truly"
G|---------------------------------------------------------------------------------|
D|---------------------------------------------------------------------------------|
A|---------------------------------------------------------------------------------|
E|-1----1----1----1----1----1----1----1----3----3----3----3----3----3----3----3----|

G|---------------------------------------------------------------------------------|
D|---------------------------------------------------------------------------------|
A|-----------3---------------------------------------3-----------------------------|
E|-4----4---------4----4----4----3----4----4----4---------4----4----4----3----4----|

"I can't begin, begin to tell you"
G|---------------------------------------------------------------------------------|
D|---------------------------------------------------------------------------------|
A|---------------------------------------------------------------------------------|
E|-1----1----1----1----1----1----1----1----3----3----3----3----3----3----3----3----|

G|---------------------------------------------------------------------------------|
D|---------------------------------------------------------------------------------|
A|-----------3-----------------------------4----4----4----4----4----3--------------|
E|-4----4---------4----4----4----3----4----------------------------------6----4----|

G|----------------------------------------------------------------|
D|----------------------------------------------------------------|
A|-----------------------------4~-------6----6----6----6----6x----|
E|-1~--------3~-------4~------------------------------------------|

Outro (no bass)




7. THE PLAN (FUCK JOBS)

Intro (no bass until "I'm sorry")
G|-----------------------------------------|
D|-----------------------------------------|
A|-3----3----------------------------------| x 2
E|-----------1----1----5----5----0----0----|

Pre-Verse
G|-----------2-2-2-0---------------------------|
D|--------------------2--3----3----3-3-3-2--0--|
A|-3----3--------------------------------------| x 2
E|---------------------------------------------|

Verse
G|-----------2-2-2-0---------------------------|
D|--------------------2--3----3----3-3-3-2--0--|
A|-3----3--------------------------------------| x 2
E|---------------------------------------------|

"And I will take cold showers"
G|-----------------------------------------------------------------------------------------------|
D|------------2-2-2-0-----------------3-3-3-2--0------------2-2-2-0----------------3-3-3-3-2--0--|
A|---------------------3-----------3---------------------------------3----------3----------------| 
E|-3-3-3-3-3---------------1----1-----------------3----3----------------1----1-------------------|      

Interlude
G|-----------------------------------------|     G|-----------------------------|
D|-----------------------------------------|     D|-----------------------------|
A|-3----3----------------------------------| x 2 A|-----------------------------|
E|-----------1----1----5----5----0----0----|     E|-1~--------------------------|

"I could feel myself falling from an aeroplane"
G|----------------------------------------------------------------------------------|
D|----------------------------------------------------------------------------------|
A|----------------------------------0--2--3~--------3--3--3--2--0~------------------|
E|-1~----------------3~--------3-----------------------------------------------3----|

G|-------------------------------------------------------------------------------|
D|-------------------------------------------------------------------------------|
A|----------------------------------0--2--3~--------3---------0~-----------------|
E|-1~------------1--3~---------3-------------------------3------------------3----|

"I love you, I need you"
G|---------------------------------------------------------------------------------|
D|---------------------------------------------------------------------------------|
A|------------------------------------2----3----3----3----2----0----0----0---------|
E|-1----1----1----1----3----3----3--------------------------------------------3----|

G|---------------------------------------------------------------------------------|
D|---------------------------------------------------------------------------------|
A|------------------------------------2----3----3----3----2----0----0----0----2----|
E|-1----1----1----1----3----3----3-------------------------------------------------|

Verse (same as before)

Bridge
G|-------------------------------------------------------------------------------------------------|
D|-------------------------------------------------------------------------------------------------|
A|-------------------------------------------------------------------------------------------------|
E|-------------------------------------------------5--5--5--5--5--5--5--5--0--0--0--0--0--0--0--0--|

G|-------------------------------------------------------------------------------------------------|
D|-------------------------------------------------------------------------------------------------|
A|-3--3--3--3--3--3--3--3--------------------------------------------------------------------------| x 2
E|-------------------------1--1--1--1--1--1--1--1--5--5--5--5--5--5--5--5--0--0--0--0--0--0--0--0--|

"When my mind is uncertain my body decides"
G|--------------------------------------------------------------7--7--7--5--------------7--7--7--9--9\-|
D|--------------------------------------------------------------------------7--------------------------|
A|-3--3--3/12--12--12--12--10--8--8--8--7--7--7--8--8--------------------------7--7--7-----------------| x 2
E|-----------------------------------------------------5--5--5-----------------------------------------|

G|-------------------------------------------------------------5--7--9--7--5-----------7--7--7--9--9\-|
D|-------------10-------------------------------------------------------------------------------------|
A|-3--3--3/12------12--10--7--8--8--8--7--7--7--8--8--------------------------7--7--7-----------------| x 2
E|----------------------------------------------------5--5--5-----------------------------------------|

Outro (slow down at the end)
G|-------------------------------------------------------------7--7--7--5--------------7--7--7--9--9--5~-----|
D|-------------------------------------------------------------------------7---------------------------------|
A|-3--3--3/12--12--12--12--10--8--8--8--7--7--7--8--8-------------------------7--7--7------------------------|
E|-----------------------------------------------------5--5--5-----------------------------------------------|





8. GINGER

Intro
G|-----------------------------------------------------------------|
D|-----------------------------------------------------------------|
A|-4-4-4-4-4-4-4-4-4-4-4-4-4-4-4-4---------------------------------|
E|---------------------------------2-2-2-2-2-2-2-2-4-4-4-4-4-4-4-4-|

Verse I (come in after "hardwood floor apartment")
G|-----------------------------------------------------------------|
D|-----------------------------------------------------------------|
A|-4-4-4-4-4-4-4-4-4-4-4-4-4-4-4-4---------------------------------|
E|---------------------------------2-2-2-2-2-2-2-2-4-4-4-4-4-4-4-4-|

Chorus ("Everything's a cavity")
G|-------------------------------------------------------------------------|
D|-3----3----3-----3-4----4----4-3-----------------------------------------|
A|-------------4-6-----------------6----4----4----4-------4-4-4-4-4--------|
E|--------------------------------------------------6-4-6-----------6-4----|

G|----------------------------------------------------------------------|
D|-3----3----3-----3-4----4----4-3--------------------------------------|
A|-------------4-6-----------------6----4-4-4-4-4-4-4-4-4-4-4-4-4-4-4-4-|
E|----------------------------------------------------------------------|

G|-------------------------------------------------------------------------|
D|-3----3----3-----3-4----4----4-3-----------------------------------------|
A|-------------4-6-----------------6----4----4----4-------4-4-4-4-4--------|
E|--------------------------------------------------6-4-6-----------6-4----|

G|---------------------------------------------------------------------|
D|-3----3----3-3-3-3-4----4----4-4-4-4---------------------------------|
A|-------------------------------------4-4-4-4-4-4-4-4-1-1-1-1-1-1-1-1-|
E|---------------------------------------------------------------------|

("See you can tie her up, just don't tie her down")
G|-----------------------------------------------------------------|
D|-----------------------------------------------------------------|
A|---------------------------------4-4-4-4-4-4-4-4-4-4-4-4-4-4-4-4-|
E|-1-1-1-1-1-1-1-1-2-2-2-2-2-2-2-2---------------------------------|

G|---------------------------------|
D|---------------------------------|
A|---------------------------------|
E|-1-1-1-1-1-1-1-1-2-2-2-2-2-2-2-2-|

Post-Chorus/Verse II
G|-----------------------------------------------------------------|
D|-----------------------------------------------------------------|
A|-4-4-4-4-4-4-4-4-4-4-4-4-4-4-4-4---------------------------------| x 2
E|---------------------------------2-2-2-2-2-2-2-2-4-4-4-4-4-4-4-4-|

G|-----------------------------------------------------------------|
D|-----------------------------------------------------------------|
A|-4-4-4-4-4-4-4-4-4-4-4-4-4-4-4-4---------------------------------| 
E|---------------------------------2-2-2-2-2-2-2-2-4-4-4-2-4-------|

Chorus II
G|----------------------------------------------------------------------|
D|-3----3----3-----3-4----4----4-3--------------------------------------|
A|-------------4-6-----------------6----4-4-4-4-4-4-4-4-4-4-4-4-4-4-4-4-|
E|----------------------------------------------------------------------|

G|-------------------------------------------------------------------------|
D|-3----3----3-----3-4----4----4-3-----------------------------------------|
A|-------------4-6-----------------6----4----4----4-------4-4-4-4-4--------| 
E|--------------------------------------------------6-4-6-----------6-4----|

G|---------------------------------------------------------------------|
D|-3----3----3-3-3-3-4----4----4-4-4-4---------------------------------|
A|-------------------------------------4-4-4-4-4-4-4-4-1-1-1-1-1-1-1-1-|
E|---------------------------------------------------------------------|

G|-----------------------------------------------------------------|
D|-----------------------------------------------------------------|
A|---------------------------------4-4-4-4-4-4-4-4-4-4-4-4-4-4-4-4-|
E|-1-1-1-1-1-1-1-1-2-2-2-2-2-2-2-2---------------------------------|

G|-----------------------------------------------------------------|
D|-3-3-3-3-3-3-3-3-3-3-3-1-1-1-----4-4-4-4-4-4-4-4-4-4-4-3-3-3-1-1-|
A|-----------------------------4-4---------------------------------|
E|-----------------------------------------------------------------|

Bridge
G|-------------------------3--3--3--3--1--1--1--1--|
D|-------------4--4--4--4--------------------------|
A|-4--4--4--4--------------------------------------|
E|-------------------------------------------------|

Come in again at "I got a dead spider in my pocket"
G|-------------------------------------------------------------------|
D|-------------------------------------------------------------------|
A|-4-4-4-4-4-4-4-4-4-----------------1-1-1-1-1-1-1-1-----------------|
E|-------------------2-2-2-2-2-2-2-2-----------------4-4-4-4-4-4-4-4-|

G|-----------------------------------------------------------------------------------|
D|-----------------------------------------------------------------------------------|
A|-4-4-4-4-4-4-4-4-4-----------------1-1-1-1-1-1-1-1---------------------------------|
E|-------------------2-2-2-2-2-2-2-2-----------------4-4-4-4-4-4-4-4-4-4-4-4-4-4-4-4-|

"See you can tie me up, but don't tie me down"
G|-----------------------------------------------------------------|
D|-----------------------------------------------------------------|
A|-----------------------------------------------------------------|
E|-2-2-2-2-2-2-2-2-2-2-2-2-2-2-2-2-4-4-4-4-4-4-4-4-4-4-4-4-4-4-4-4-|

G|-----------------------------------------------------------------|
D|-----------------------------------------------------------------|
A|-----------------------------------------------------------------|
E|-2-2-2-2-2-2-2-2-2-2-2-2-2-2-2-2-4-4-4-4-4-4-4-4-4-4-4-4-2-2-2-2-|

Final Chorus 
G|-------------------------------------------------------------------------|
D|-3----3----3-----3-4----4----4-3-----------------------------------------|
A|-------------4-6-----------------6----4----4----4-------4-4-4-4-4--------| x 2
E|--------------------------------------------------6-4-6-----------6-4----|

G|---------------------------------------------------------------------|
D|-3----3----3-3-3-3-4----4----4-4-4-4---------------------------------|
A|-------------------------------------4-4-4-4-4-4-4-4-1-1-1-1-1-1-1-1-|
E|---------------------------------------------------------------------|

G|---------------------------------------------------------------|
D|-3--3x------------4--4x----------------------------------------|
A|-----------------------------------4~--------------------------|
E|---------------------------------------------------------------|




9. 2YL

Intro
G|--------------------------------------------------|       G|--------------|
D|-----------2--------2-----------------------------|       D|-----------2--|
A|-------2-4-------------4--------4-----------------| x 2   A|-------2-4----|
E|-0-2-4-----------------------------5--------5--0--|       E|-0-2-4--------|

G|-------------------------------------------------|
D|-------------------------------------------------|
A|-------------------------------------------------|
E|-5--5--5--5--2--2--3--3--5--5--5--5--2--2--3--3--|

Verse I
G|-----------------------------------------------------------------|
D|-----------------------------------------------------------------|
A|-----------------------------------------------------------------|
E|-0~--------------------------------------------------------------|

G|-----------------------------------------------------------------|
D|-----------------------------------------------------------------|
A|-----------------------------------------------------------------|
E|-5-5-5-5-5-5-5-5-5-5-5-5-5-5-5-5-5-5-5-5-5-5-5-5-5-5-5-5-5-5-5-5-|

G|-----------------------------------------------------------------|
D|-----------------------------------------------------------------|
A|-----------------------------------------------------------------|
E|-0-0-0-0-0-0-0-0-0-0-0-0-0-0-0-0-0-0-0-0-0-0-0-0-0-0-0-0-0-0-0-0-|

G|-----------------------------------------------------------------|
D|-----------------------------------------------------------------|
A|-----------------------------------------------------------------|
E|-5-5-5-5-5-5-5-5-5-5-5-5-5-5-5-5-5-5-5-5-5-5-5-5-5-5-5-5-5-5-5-5-|

Pre-Chorus
G|----------------------------------------------------------|
D|----------------------------------------------------------|
A|----------------------------------------------------------|
E|-0----0-0------2----2-2------4----4-4------5----5-7-5-4-2-|

G|----------------------------------------------------------|
D|----------------------------------------------------------|
A|----------------------------------------------------------|
E|-0----0-0------2----2-2------4----4-4------5----5-5-5\----|
                                                                   (the fill is heard during the drums)
G|---------------------------------------------------------------------------------------|
D|---------------------------------------------------------------1-1-1-1-4------------2--|
A|-------------------------------------------------------2-2-2-2------------------2-4----|
E|-0----0-2----2-4----4-5----\-0----0-2----2-4----4-5-----------------------0-2-4--------|

Chorus
G|-----------------------------------------------------|
D|-2--------2---------------------------------------2--|
A|-------------4--------4-----------------------2-4----| x 2
E|-------------------------5--------5--0--0-2-4--------|

G|-------------------------|
D|-------------------------|
A|-------------------------|
E|-5--5--5--5--2--2--3--3--|

Verse II
G|-----------------------------------------------------------------|
D|-----------------------------------------------------------------|
A|-----------------------------------------------------------------|
E|-0-0-0-0-0-0-0-0-0-0-0-0-0-0-0-0-0-0-0-0-0-0-0-0-0-0-0-0-0-0-0-0-|

G|-----------------------------------------------------------------|
D|-----------------------------------------------------------------|
A|-----------------------------------------------------7-9---7-9---|
E|-5-5-5-5-5-5-5-5-5-5-5-5-5-5-5-5-5-5-5-5-5-5-5-5-5-5-------------|

G|-----------------------------------------------------------------|
D|-----------------------------------------------------------------|
A|-----------------------------------------------------------------|
E|-0-0-0-0-0-0-0-0-0-0-0-0-0-0-0-0-0-0-0-0-0-0-0-0-0-0-0-0-0-0-0-0-|

G|----------------------------------------------------------------|
D|----------------------------------------------------------------|
A|----------------------------------------------------------------|
E|-5-5-5-5-5-5-5-5-5-5-5-5-5-5-5-5-5-5-5-5--5-5-5-5-5-5-5-5-5-5-5-|

Pre-Chorus (same as before)

Chorus II
G|-----------------------------------------------------|
D|-2--------2---------------------------------------2--|
A|-------------4--------4-----------------------2-4----| x 2
E|-------------------------5--------5--0--0-2-4--------|

G|-----------------------------------------------------|
D|-2----4-2-----------------------------------------2--|
A|-------------4----4-2-------------------------2-4----| x 2
E|-------------------------5----4-2----0--0-2-4--------|

G|-------------------------|
D|-------------------------|
A|-------------------------|
E|-5--5--5--5--2--2--3--3--|

Solo
G|-----------------------------------------------------|
D|-2--------2---------------------------------------2--|
A|-------------4--------4-----------------------2-4----| x 2
E|-------------------------5--------5--0--0-2-4--------|

G|-----------------------------------------------------|
D|-2----4-2-----------------------------------------2--|
A|-------------4----4-2-------------------------2-4----| x 2
E|-------------------------5----4-2----0--0-2-4--------|

Pre-Chorus III
G|------------------------------------------------------|
D|------------------------------------------------------|
A|------------------------------------------------------|
E|-0----0-2----2-4----4-5----\-0----0-2----2-4----4-5---|

G|-------------------------------------------------2-2-2-2-2-2-2-2-----------------|
D|-----------------1-1-1-1-1-1-1-1-4-4-4-4-4-4-4-4------------------------------2--|
A|-2-2-2-2-2-2-2-2----------------------------------------------------------2-4----|
E|-----------------------------------------------------------------0--0-2-4--------|

Final Chorus
G|-----------------------------------------------------|
D|-2--------2---------------------------------------2--|
A|-------------4--------4-----------------------2-4----| 
E|-------------------------5--------5--0--0-2-4--------|

G|-----------------------------------------------------|
D|-2----4-2-----------------------------------------2--|
A|-------------4----4-2-------------------------2-4----| 
E|-------------------------5----4-2----0--0-2-4--------|

G|--------------------------------------------------------|
D|-2--2--4-2------------------------------------------2-4-|
A|-----------2-4--4--7-4--------------------------2-4-----|
E|-----------------------7-4-5--5--5-4-2-0--0-2-4---------|

G|-----------------------------------------------------------|
D|-6--4--6-4-----------2----------------2-4---------------2--|
A|------------4--4-2-4---4-2--------2-4---------------2-4----|
E|---------------------------4-5--5----------0--0-2-4--------|

Outro
G|---------------------------------------------------------------------------|
D|---------------------------------------------------------------------------|
A|---------------------------------------------------------------------------|
E|-5--5--5--5--5--5--5--5--2--2--2--2--3--3--3--3--0~------------------------|




10. WEST VIRGINIA

Intro/Verse (no bass)

Chorus ("Love of my life, gone forever")
G|-------------------------------------------------------------|
D|---------------------5--5------2--2--------------------------|
A|-3--3------5--5--------------------------3--3------5--5------|
E|-------------------------------------------------------------|

G|-------------------------------------------------------------|
D|-------------------------------------------------------------|
A|-------------------------------------------------------------|
E|-3--3--3--3--3--3--3--3-/15--15--15--15--15-15-15-15-15-15-\-|

Main Riff 
G|-------------------------------------|
D|-------------------------------------|
A|----------3-3----3----------3-3----3-| x 4
E|-3-3----3----------0-0----0----------|

Verse II
G|----------------------------------------------------------------------------------------------------|
D|----------------------------------------------------------------------------------------------------|
A|----------------------------------------------------------------------------------------------------|
E|-3-3-----------------3-3-3----------------3-3-3----------------3-3-3--------0--0--0--0--0--0--0--0--|

G|-------------------------------------|
D|-------------------------------------|
A|----------3-3----3----------3-3----3-| x 2
E|-3-3----3----------0-0----0----------|

G|-----------------------------|
D|-----------------------------|
A|-----5-3---2-------5-3---2---| 
E|-3-3-----------0-0-----------|

Chorus II
G|-------------------------------------------------------------|
D|---------------------5--5------2--2--------------------------|
A|-3--3------5--5--------------------------3--3------5--5------|
E|-------------------------------------------------------------|

G|-------------------------------------|
D|-------------------------------------|
A|-------------------------------------|
E|-3--3--3--3-/15-15-15-15-15-15-15-15-|

Main Riff Variation
G|-------------------------------------|
D|-------------------------------------|
A|----------3-3----3----------3-3----3-| x 2
E|-3-3----3----------0-0----0----------|

G|---------------------------------------------------------------|
D|---------------------------------------------------------------|
A|-----5-3---2-------5-3--2-----------3-3----3----------3-3----3-|
E|-3-3-----------0-0---------3-3----3----------0-0----0----------|

Verse III
G|-------------------------------------|
D|-------------------------------------|
A|----------3-3----3----------3-3----3-| x 4
E|-3-3----3----------0-0----0----------|

G|-----------------------------|
D|-----------------------------|
A|-----5-3---2-------5-3---2---| 
E|-3-3-----------0-0-----------|

"Hellbent on self destruction"
G|--------------------------------------------------------------------|
D|--------------------------------------------------------------------|
A|----------------------------------------------------3-3-3-3-3-3-3-3-| x 2
E|-3-3-3-3-3-3-3-3-3-3-3-3-3-3-3-3/12-12-12-0-0-0-0-0-----------------|

"Ride or die, brothers for life"
G|--------------------------------------------|
D|-------------------------------2--5---------|
A|-----------3--5------3--5-------------------|
E|-0--3------------------------------------0--|

G|----------------------------------------------------------|
D|-------------------------------------------2--5--5-5-5-5--|
A|-------------3--5--5-5-5-5--3--5--5-5-5-5-----------------| x 2
E|-3--3-3-3-3-----------------------------------------------|

G|---------------------------------------------------------------|
D|-------------------------------------------2--5--5-2-2---------|
A|-------------3--5--5-5-5-5--3--5--5-5-5-5--------------5-5-3-3-|
E|-3--3-3-3-3----------------------------------------------------|

Bridge
G|-------------------------------------------------|
D|-------------------------------------------------|
A|-2--2--2--2--------------3--3--2-----------------| x 6
E|-------------5--5--5--5-----------5--3--3--3--3--|

Final Chorus
G|-------------------------------------------------------------|
D|---------------------5--5------2--2--------------------------|
A|-3--3------5--5--------------------------3--3------5--5------|
E|-------------------------------------------------------------|

G|--------------------------|
D|--------------------------|
A|--------------------------|
E|-3--3--------3--3---------|

G|----------------------4---2--------------------------------------------------|
D|------------------------------5--2--2----------------------------------------|
A|-3--3-------5--5---------------------------3--3------5--5--------------------|
E|---------------------------------------------------------------3--3--3-3-3-3-|



11. PLASTIC FLOWERS

Intro (come in with the rest of the band)
G|---------------------------|
D|---------------------------|
A|-5----3----1-1-1-1-1-1-1-1-|
E|---------------------------|

Verse 
G|-----------------------------2-2---------------------------------|
D|-3-3-3-3-3-3-3-3-3-3-3-5-5-5-------------------------------------|
A|---------------------------------1-1-1-1-1-1-1-1-1-1-1-1-1-1-1-1-|
E|-----------------------------------------------------------------|

G|-----------------------------------------------------------------|
D|-----------------------------------------------------------------|
A|-----------------------0-0-0-1-1-3-3-3-3-3-3-3-3-3-3-3-3-3-3-3-3-|
E|-3-3-3-3-3-3-3-3-3-3-3-------------------------------------------|

"Cuz I believe that someones got a plan for me"
G|-----------------------------------------------------------------|
D|-----------------------------------------------------------------|
A|---------------------------------1-1-1-1-1-1-1-1-1-1-1-1-1-1-1-1-|
E|-1-1-1-1-1-1-1-1-1-1-1-1-1-1-1-1---------------------------------|

G|-----------------------------------------------------------------|
D|-----------------------------------------------------------------|
A|---------------------------------3-3-3-3-3-3-3-3-3-3-3-3-3-3-3-3-|
E|-3-3-3-3-3-3-3-3-3-3-3-3-3-3-3-3---------------------------------|

G|-------------------------------0-|
D|-----------------------------2---|
A|-1-1-1-1-1-1-1-1-1-1-1-1-1-3-----|
E|---------------------------------|

Refrain
G|-------------------------------------------------------|
D|-------------------------------------------------------|
A|----------------3-3-3-3-3--1-3-5----3----1----1-3-5-3--|
E|-1----1-1--1-------------------------------------------|

G|-------------------------------------------------------|
D|-------------------------------------------------------|
A|----------------3-3-3-3-3--1-3-5----3----1----1-1------|
E|-1----1-1--1--------------------------------------5-3--|

Verse (same as before)

Refrain II
G|-------------------------------------------------------|
D|-------------------------------------------------------|
A|----------------3-3-3-3-3--1-3-5----3----1----1-1-3-5--|
E|-1----1-1--1-------------------------------------------|

G|-2--0------------------------------------------------|
D|-------3-3-0-----------------------------------------|
A|--------------3-3-3-3-3--1-3-5----3----1----1-1------|
E|------------------------------------------------5-3--|

G|-----------------------------------------------------------------|
D|-----------------------------------------------------------------|
A|-----------------3-3-3-3-3-3-3-3-5-5-5-5-3-3-3-3-1-1-1-1-1-1-1-1-|
E|-1-1-1-1-1-1-1-1-------------------------------------------------|
                                                             (strum 8th notes while slowly doing the slide!)
G|------------------------------------------------------------------------------------------------------|
D|------------------------------------------------------------------------------------------------------|
A|-----------------3-3-3-3-3-3-3-3-5----3----1~--------5----3----1----1-1-1-1-5----3----1~-------/13~---|
E|-1-1-1-1-1-1-1-1--------------------------------------------------------------------------------------|

Bridge 

There's a fill that begins when he says "All these people around you", 
and ends at "worse before it gets better"; listen closely for better timing
G|-2-3-5------2----0------------------------------------|
D|-------------------3----------------------------------|
A|------------------------3---1-------------------------|
E|--------------------------------3--1----1-1-----------|

Play along with the "Bum bum bum bum"
G|-5----3----2----0----|
D|---------------------|
A|---------------------|
E|---------------------|

"I believe that someone's got a plan for me"
G|--------------------------------------------------------------------|
D|-3----3------------3----3-------------------------------------------|
A|-----------5--3--------------5--3----1----1--------0-1----1------0--|
E|-----------------------------------------------1-3------------------|

"They've got a plan for me, even if I don't know yet"
G|---------------------------------------------5--3--2--0--|
D|---------------------------------------------------------|
A|-------------------------------3----3--------------------|
E|-3----3--------3-3----3----------------------------------|

G|---------------------------------------------------------3-5--3--|
D|-3----3------------3----3------------------------------3---------|
A|-----------5--3--------------5--3----1----1--------0-1-----------|
E|-----------------------------------------------1-3---------------|

G|---------------------------------------------------------|
D|---------------------------------------5-5-5-5-----------|
A|-------------------------------3-3-3-3---------3---------|
E|-3----3--------3-3----3----------------------------------|

Refrain III
G|-------------------------------------------------------|
D|-------------------------------------------------------|
A|----------------3-3-3-3-3--1-3-5----3----1----1-3-5-3--|
E|-1----1-1--1-------------------------------------------|

G|-2--0------------------------------------------------|
D|-------3-3-0-----------------------------------------|
A|--------------3-3-3-3-3--1-3-5----3----1----1-1------|
E|------------------------------------------------5-3--|

G|-------------------------------------------------------|
D|-------------------------------------------------------|
A|----------------3-3-3-3-3--1-3-5----3----1----1-3-5-3--|
E|-1----1-1--1-------------------------------------------|

G|-2--0---------------------------------------------------|
D|-------3-3-0--------------------------------------------|
A|--------------3-3-3-3-3--1-3-5----3----1----/13-13--12--|
E|--------------------------------------------------------|

G|-----------------------------------------------------------------|
D|-----------------------------------------------------------------|
A|-----------------3-3-3-3-3-3-3-3-5-5-5-5-3-3-3-3-1-1-1-1-1-1-1-1-|
E|-1-1-1-1-1-1-1-1-------------------------------------------------|
                                                            
G|-------------------------------------------------------3------3--|
D|-----------------------------------------------------------------|
A|-----------------3-3-3-3-3-3-3-3-5-5-5-5-5-3-3-3-3-1-1----1-1----|
E|-1-1-1-1-1-1-1-1-------------------------------------------------|
                                        (strum 8th notes while slowly doing the slide!)
G|----------------------------------------------------------------------|
D|----------------------------------------------------------------------|
A|-5----3----1~--------5----3----1----1-1-1-1-5----3----1~-------/13~---|
E|----------------------------------------------------------------------|

End on:
G|---------------------------------------------------------------|
D|---------------------------------------------------------------|
A|---------------------------------------------------------------|
E|-1------------------------1------------------------------------|

Happy playing!

| /  slide up
| \  slide down
| h  hammer-on
| p  pull-off
| ~  vibrato
| +  harmonic
| x  Mute note
===============================================================================
Добавлено: 14.03.2016
Другие материалы по этой песне:
  • Аккорды и текст

Страница создана 14.03.2016
http://primanota.ru/the-front-bottoms/back-on-top-album-chords.htm
Привет, Гость.
Предлагаем пройти революционный курс по гитаре.
Подарок от PrimaNota.Ru, забирай!