PrimaNota.ru - самый крупный в мире бесплатный архив песенных текстов, аккордов, табулатур и нот


The Front Bottoms - Wolfman - таба, бас-таба, видео

Регистрация Запомнить меня
Войти через:  Facebook Google Twitter Vk Yandex Mail.ru

The Front Bottoms - Wolfman - таба, бас-таба, видео

Печатать
Просмотров: 79
                             Wolfman - The Front Bottoms
-------------------------------------------------------------------------------
Tabbed by: Vin1997
The Front Bottoms - Wolfman (The Front Bottoms/GDP Split 7")
Track 02
Tuning:Standard
4/4 Time
x= palm mute
the chord changes in the chorus can be a bit tricky, but nothing too difficult to figure out.
feel free to mention any adjustments that might be needed



Intro:
e|---------------------------------------------------------------------------|
B|---------------------------------------------------------------------------|
G|---------------------------------------------------------------------------|
D|----------3--------5--------3----------------------------------------------|
A|-3--------1--------3--------1----------------------------------------------|
E|-1-------------------------------------------------------------------------|

Verse 1:

"Deep and slow, that's how it goes...Every time I swim to consciousness"
e|------------------------------------------------------------------------------|
B|------------------------------------------------------------------------------|
G|------------------------------------------------------------------------------|
D|------------------------------------------------------------------------------|
A|----------1--------3--------1-------------------------------------------------|
E|-1----------------------------------------------------------------------------|

"And I misspelled every word perfectly...my head is pounding to the beat of my heart"
e|---------------------------------------------------------------------------|
B|---------------------------------------------------------------------------|
G|---------------------------------------------------------------------------|
D|-7--------10--------3--------5--------3------------------------------------|
A|-5--------8---------1--------3--------1------------------------------------|
E|---------------------------------------------------------------------------|

Chorus 1:

"You are a broken heart tattoo...But never could forget"
e|---------------------------------------------------------------------------|
B|---------------------------------------------------------------------------|
G|---------------------------------------------------------------------------|
D|-3---------3-7---------10-3---------5-7------------------------------------|
A|-1---------5-5---------8--1---------3-5------------------------------------|
E|---------------------------------------------------------------------------|

Verse 2:

"Say what you have to say...At this point in your life"
e|------------------------------------------------------------------------------|
B|------------------------------------------------------------------------------|
G|----------x--------x----------------------------------------------------------|
D|-x--------3--------5----------------------------------------------------------|
A|-3--------1--------3----------------------------------------------------------|
E|-1----------------------------------------------------------------------------|


"It's so hard to stay....you were meant to fly"
e|---------------------------------------------------------------------------|
B|---------------------------------------------------------------------------|
G|---------------------------------------------------------------------------|
D|-7--------10----3--------5--------3----------------------------------------|
A|-5--------8-----1--------3--------1----------------------------------------|
E|---------------------------------------------------------------------------|

Chorus 2:

"You are a broken heart tattoo...But never could forget"
e|---------------------------------------------------------------------------|
B|---------------------------------------------------------------------------|
G|---------------------------------------------------------------------------|
D|-3---------3-7---------10-3---------5-7--------10--------------------------|
A|-1---------5-5---------8--1---------3-5--------8---------------------------|
E|---------------------------------------------------------------------------|

Bridge:

"I shook 'til I came out of it"
e|---------------------------------------------------------------------------|
B|---------------------------------------------------------------------------|
G|---------------------------------------------------------------------------|
D|-3----------------7----------------3---------------7-----------------------|
A|-1----------------5----------------1---------------5-----------------------|
E|---------------------------------------------------------------------------|


"Let's sit down, we'll sit down proud...We'll sit down"
e|---------------------------------------------------------------------------|
B|---------------------------------------------------------------------------|
G|---------------------------------------------------------------------------|
D|-3--------5--------10--------4-----------------3-3-------------------------|
A|-1--------3--------8---------2--------3--------1-1-------------------------|
E|--------------------------------------1------------------------------------|

Solo:

e|---------------------------------------------------------------------------|
B|---------------------------------------------------------------------------|
G|---------------------------------------------------------------------------|
D|-3---------3-7--------10-3---------3-7----------------10-------------------|
A|-1---------5-5--------8--1---------5-5----------------8--------------------|
E|---------------------------------------------------------------------------| x1

e|---------------------------------------------------------------------------|
B|---------------------------------------------------------------------------|
G|---------------------------------------------------------------------------|
D|-3---------3-7---------10-3---------5-7--------10--------------------------|
A|-1---------5-5---------8--1---------3-5--------8---------------------------|
E|---------------------------------------------------------------------------|x4

Verse 3:

"Nothing matters, the importance of nothing...Nothing matters, nothing matters"
e|---------------------------------------------------------------------------|
B|---------------------------------------------------------------------------|
G|---------------------------------------------------------------------------|
D|-3---------3-7---------10-3---------5-7------------------------------------|
A|-1---------5-5---------8--1---------3-5------------------------------------|
E|---------------------------------------------------------------------------|x4

Outro:

e|---------------------------------------------------------------------------|
B|---------------------------------------------------------------------------|
G|---------------------------------------------------------------------------|
D|-3-3-3-3-3-3-5-5-7-7-7-7-7-7-5-5-3-3-3-3-3-3-3-----------------------------|
A|-1-1-1-1-1-1-3-3-5-5-5-5-5-5-3-3-1-1-1-1-1-1-1-3-5-------------------------|
E|-----------------------------------------------1-3~~~~~~~~-----------------|


************************************

| /   slide up
| \   slide down
| h   hammer-on
| p   pull-off
| ~   vibrato
| +   harmonic
| x   Mute note
| b   Bend
| pb  Pre-bend
| br  Bend release
| pbr Pre-bend release
| brb Bend release bend

************************************
Добавлено: 26.10.2015
Другие материалы по этой песне:
  • Аккорды и текст

Страница создана 26.10.2015
http://primanota.ru/the-front-bottoms/wolfman-chords.htm
Привет, Гость.
Предлагаем пройти революционный курс по гитаре.
Подарок от PrimaNota.Ru, забирай!