PrimaNota.ru - самый крупный в мире бесплатный архив песенных текстов, аккордов, табулатур и нот


The Cinematic Orchestra - The Life Of The Bird - таба, видео

Регистрация Запомнить меня
Войти через:  Facebook Google Twitter Vk Yandex Mail.ru

The Cinematic Orchestra - The Life Of The Bird - таба, видео

Печатать
Просмотров: 73
Уроки эстрадного вокала в Санкт-Петербурге
The Life of the Bird - Tab

Tuning: Standard

Note I: This is a piece by The Cinematic Orchestra from 
Disney's "The Crimson Wing: Mystery of the Flamingos."

Note II: This is just for the guitar parts that I could hear.

[0:00-0:31]
[x2]
E|------------------------------------------------------------|
B|-6-----6-----6-----6-----6-----6-----6-----6----------------|
G|----6-----6-----6-----6-----6-----6-----6-----6-------------|
D|------------------------------------------------------------|
A|------------------------------------------------------------|
E|------------------------------------------------------------|

E|------------------------------------------------------------|
B|-9------9------9------9------7------7------7------7---------|
G|----10-----10-----10-----10-----10-----10-----10-----10-----|
D|------------------------------------------------------------|
A|------------------------------------------------------------|
E|------------------------------------------------------------|

[x1]
E|-6-----6-----6-----6-----6-----6-----6-----6----------------|
B|----6-----6-----6-----6-----6-----6-----6-----6-------------|
G|------------------------------------------------------------|
D|------------------------------------------------------------|
A|------------------------------------------------------------|
E|------------------------------------------------------------|

E|------------------------------------------------------------|
B|-9------9------9------9------7------7------9~---------------|
G|----10-----10-----10-----10-----10-----10--10~--------------|
D|------------------------------------------------------------|
A|------------------------------------------------------------|
E|------------------------------------------------------------|

[0:46]
[x1]
E|-----|
B|-9~--|
G|-10~-|
D|-----|
A|-----|
E|-----|

[1:58-2:19]
[x16]
E|------------|
B|----------9-|
G|-11-10-11---|
D|------------|
A|------------|
E|------------|

[3:06-3:16]
[x1]
E|-9---9--9---9-11-9---9--9---9-11-8----9------------|
B|-11-----11-------11-----11---------------------11~-|
G|-10-----10-------10-----10---------------------10~-|
D|-----------------------------------------------8~--|
A|---------------------------------------------------|
E|---------------------------------------------------|

If there's any confusion, questions, or advice on how to 
improve it, please post a comment. Have fun playing, and 
please rate! -Rarrlow
Добавлено: 17.11.2015
Другие материалы по этой песне:
  • Аккорды и текст

Страница создана 17.11.2015
http://primanota.ru/the-cinematic-orchestra/life-of-bird-chords.htm
Привет, Гость.
Предлагаем пройти революционный курс по гитаре.
Подарок от PrimaNota.Ru, забирай!