PrimaNota.ru - самый крупный в мире бесплатный архив песенных текстов, аккордов, табулатур и нот


The Cinematic Orchestra - The Exodus - таба, видео

Регистрация Запомнить меня
Войти через:  Facebook Google Twitter Vk Yandex Mail.ru

The Cinematic Orchestra - The Exodus - таба, видео

Печатать
Просмотров: 58
The Exodus - Tab

Tuning: Standard

Note I: This is a piece by The Cinematic Orchestra from 
Disney's "The Crimson Wing: Mystery of the Flamingos."

Note II: This is just for the guitar parts for now.  I plan to 
add some of the other instruments' parts later.

____________________

Key

~  = let ring
() = optional note
____________________

[x2]
   A             E             Dsus2
E|-----------------------------------0~-----------------------|
B|-----2-------------0-------------3--------------------------|
G|---2---2~--------1---1~--------2----------------------------|
D|-2-------------2-------------0------------------------------|
A|------------------------------------------------------------|
E|------------------------------------------------------------|

   Bm            A             E
E|------------------------------------------------------------|
B|-------3~------------2~------------0~-----------------------|
G|-----4-------------2-------------1--------------------------|
D|---4-------------2-------------2----------------------------|
A|-2-------------0-------------2------------------------------|
E|------------------------------------------------------------|

   Dsus2                   E       A
E|-----------------------------------------------------------------|
B|-----3-------3-------3-------0-------2-------2-------2-------2---|
G|---2---2---2---2---2---2---1---1---2---2---2---2---2---2---2---2-|
D|-0-------0-------0-------2-------2-------2-------2-------2-------|
A|-----------------------------------------------------------------|
E|-----------------------------------------------------------------|

   A               E
E|------------------------------------------------------------|
B|-----2-------2-------0-------0------------------------------|
G|---2---2---2---2---1---1---1---1----------------------------|
D|-2-------2-------2-------2----------------------------------|
A|------------------------------------------------------------|
E|------------------------------------------------------------|

   Dsus2                                   E
E|------------------------------------------------------------|
B|-----3-------3-------3-------3-------3-------0--------------|
G|---2---2---2---2---2---2---2---2---2---2---1---1------------|
D|-0-------0-------0-------0-------0-------2------------------|
A|------------------------------------------------------------|
E|------------------------------------------------------------|

   A                                               E
E|-----------------------------------------------------------------|
B|-----2-------2-------2-------2-------2-------2-------0-------0---|
G|---2---2---2---2---2---2---2---2---2---2---2---2---1---1---1---1-|
D|-2-------2-------2-------2-------2-------2-------2-------2-------|
A|-----------------------------------------------------------------|
E|-----------------------------------------------------------------|

   Dsus2
E|------------------------------------------------------------|
B|-----3-------3-------3-------3------------------------------|
G|---2---2---2---2---2---2---2---2----------------------------|
D|-0-------0-------0-------0----------------------------------|
A|------------------------------------------------------------|
E|------------------------------------------------------------|

[0:59 Other instruments come in]

   Dsus2           A       E
E|------------------------------------------------------------|
B|-----3-------3-------2-------0-------0-------0-------0------|
G|---2---2---2---2---2---2---1---1---1---1---1---1---1---1----|
D|-0-------0-------2-------2-------2-------2-------2----------|
A|------------------------------------------------------------|
E|------------------------------------------------------------|

[x3]
   Dsus2           A       E
E|------------------------------------------------------------|
B|-----3-------3-------2-------0-------0-------0--------------|
G|---2---2---2---2---2---2---1---1---1---1---1---1------------|
D|-0-------0-------2-------2-------2-------2------------------|
A|------------------------------------------------------------|
E|------------------------------------------------------------|

[1:27]

[x2]
   A             E             Dsus2
E|-0------0------0------0------0------0------0------0---------|
B|-2------2------0------0------3------3------3------3---------|
G|-2------2------1------1------2------2------2------2---------|
D|-2------2------2------2------0------0------0------0---------|
A|-0------0------2------2-------------------------------------|
E|---------------0------0-------------------------------------|

   Bm            A             E
E|-2------2------0------0------0------0------0----------------|
B|-3------3------2------2------0------0------0----------------|
G|-4------4------2------2------1------1------1----------------|
D|-4------4------2------2------2------2------2----------------|
A|-2------2------0------0------2------2------2----------------|
E|-----------------------------0------0------0----------------|

   A             E             Dsus2
E|-0------0------0------0------0------0------0------0---------|
B|-2------2------0------0------3------3------3------3---------|
G|-2------2------1------1------2------2------2------2---------|
D|-2------2------2------2------0------0------0------0---------|
A|-0------0------2------2-------------------------------------|
E|---------------0------0-------------------------------------|

[2:00-3:34 (No guitar)]

______________
[3:35]
[x2]
   A#                      C
E|-1--1--1--1--1--1--1--1--0--0--0--0--0--0--0--0-------------|
B|-3--3--3--3--3--3--3--3--1--1--1--1--1--1--1--1-------------|
G|-3--3--3--3--3--3--3--3--0--0--0--0--0--0--0--0-------------|
D|-3--3--3--3--3--3--3--3--2--2--2--2--2--2--2--2-------------|
A|-1--1--1--1--1--1--1--1--3--3--3--3--3--3--3--3-------------|
E|------------------------------------------------------------|

   Dm                                  Em
E|-1--1--1--1--1--1--1--1--1--1--1--1--0--0--0--0-------------|
B|-3--3--3--3--3--3--3--3--3--3--3--3--0--0--0--0-------------|
G|-2--2--2--2--2--2--2--2--2--2--2--2--0--0--0--0-------------|
D|-0--0--0--0--0--0--0--0--0--0--0--0--2--2--2--2-------------|
A|-------------------------------------2--2--2--2-------------|
E|-------------------------------------0--0--0--0-------------|

   F                       C
E|-1--1--1--1--1--1--1--1--0--0--0--0--0--0--0--0-------------|
B|-1--1--1--1--1--1--1--1--1--1--1--1--1--1--1--1-------------|
G|-2--2--2--2--2--2--2--2--0--0--0--0--0--0--0--0-------------|
D|-3--3--3--3--3--3--3--3--2--2--2--2--2--2--2--2-------------|
A|-3--3--3--3--3--3--3--3--3--3--3--3--3--3--3--3-------------|
E|-1--1--1--1--1--1--1--1-------------------------------------|

   A#
E|-1--1--1--1--1--1--1--1--1--1--1--1--1--1--1--1-------------|
B|-3--3--3--3--3--3--3--3--3--3--3--3--3--3--3--3-------------|
G|-3--3--3--3--3--3--3--3--3--3--3--3--3--3--3--3-------------|
D|-3--3--3--3--3--3--3--3--3--3--3--3--3--3--3--3-------------|
A|-1--1--1--1--1--1--1--1--1--1--1--1--1--1--1--1-------------|
E|------------------------------------------------------------|
______________

[4:10-4:24]
[x2]
   Dsus2  A#     Am     C
E|(0)-----1------0------0-------------------------------------|
B|-3------3------1------1-------------------------------------|
G|-2------3------2------0-------------------------------------|
D|-0------3------2------2-------------------------------------|
A|--------1------0------3-------------------------------------|
E|------------------------------------------------------------|

[4:25-5:50 (No guitar)]

[5:51 (There may not actually be guitar from here on, but 
I believe the strumming adds to it.)]
   B                   C#        D#m
E|-2----2----2----2----4----4----6----6----6----6----6----6---|
B|-4----4----4----4----6----6----7----7----7----7----7----7---|
G|-4----4----4----4----6----6----8----8----8----8----8----8---|
D|-4----4----4----4----6----6----8----8----8----8----8----8---|
A|-2----2----2----2----4----4----6----6----6----6----6----6---|
E|------------------------------------------------------------|

   G#        F#                  C#
E|-4----4----2----2----2----2----4----4----4----4-------------|
B|-4----4----2----2----2----2----6----6----6----6-------------|
G|-5----5----3----3----3----3----6----6----6----6-------------|
D|-6----6----4----4----4----4----6----6----6----6-------------|
A|-6----6----4----4----4----4----4----4----4----4-------------|
E|-4----4----2----2----2----2---------------------------------|

   B
E|-2----2----2----2----2----2----2----2-----------------------|
B|-4----4----4----4----4----4----4----4-----------------------|
G|-4----4----4----4----4----4----4----4-----------------------|
D|-4----4----4----4----4----4----4----4-----------------------|
A|-2----2----2----2----2----2----2----2-----------------------|
E|------------------------------------------------------------|

   B                             C#        D#m
E|-2----2----2----2----2----2----4----4----6----6----6----6----6----6---|
B|-4----4----4----4----4----4----6----6----7----7----7----7----7----7---|
G|-4----4----4----4----4----4----6----6----8----8----8----8----8----8---|
D|-4----4----4----4----4----4----6----6----8----8----8----8----8----8---|
A|-2----2----2----2----2----2----4----4----6----6----6----6----6----6---|
E|----------------------------------------------------------------------|

   G#        F#                  C#
E|-4----4----2----2----2----2----4----4----4----4-------------|
B|-4----4----2----2----2----2----6----6----6----6-------------|
G|-5----5----3----3----3----3----6----6----6----6-------------|
D|-6----6----4----4----4----4----6----6----6----6-------------|
A|-6----6----4----4----4----4----4----4----4----4-------------|
E|-4----4----2----2----2----2---------------------------------|

   B
E|-2----2----2----2----2----2----2----2----2----2-------------|
B|-4----4----4----4----4----4----4----4----4----4-------------|
G|-4----4----4----4----4----4----4----4----4----4-------------|
D|-4----4----4----4----4----4----4----4----4----4-------------|
A|-2----2----2----2----2----2----2----2----2----2-------------|
E|------------------------------------------------------------|

[This part was slightly tricky.]

[x3]
   B         B         D#m       C#
E|-2----2----7----7----6----6----4----4----4----4----4----4----4----4-|
B|-4----4----7----7----7----7----6----6----6----6----6----6----6----6-|
G|-4----4----8----8----8----8----6----6----6----6----6----6----6----6-|
D|-4----4----9----9----8----8----6----6----6----6----6----6----6----6-|
A|-2----2----9----9----6----6----4----4----4----4----4----4----4----4-|
E|-----------7----7---------------------------------------------------|

         [Comes in at about 6:54 and plays until end]
   F#    [x3]
E|-2~----|-9---9--9---9--9---9--9---9---------------|
B|-2~----|---7------7------7------7-----------------|
G|-3~----|------------------------------------------|
D|-4~----|------------------------------------------|
A|-4~----|------------------------------------------|
E|-2~----|------------------------------------------|

If there's any confusion, questions, or advice on how to 
improve it, please post a comment. Have fun playing, and 
please rate! -Rarrlow
Добавлено: 17.11.2015
Вам также может быть интересно:
Другие материалы по этой песне:
  • Аккорды и текст

Страница создана 17.11.2015
http://primanota.ru/the-cinematic-orchestra/exodus-chords.htm
Привет, Гость.
Предлагаем пройти революционный курс по гитаре.
Подарок от PrimaNota.Ru, забирай!