PrimaNota.ru - самый крупный в мире бесплатный архив песенных текстов, аккордов, табулатур и нот


The Cinematic Orchestra - Breathe - текст песни, таба, видео

Регистрация Запомнить меня
Войти через:  Facebook Google Twitter Vk Yandex Mail.ru

The Cinematic Orchestra - Breathe - текст песни, таба, видео

Печатать
Просмотров: 600
Уроки эстрадного вокала в Санкт-Петербурге
Авторы: J Swinscoe, Patrick Watson, Phil France, Lhasa

-------------------------------------------------------------------------------
                             BREATHE - The Cinematic Orchestra
-------------------------------------------------------------------------------
Tabbed by: Bruno Camargo

Tuning: Standard

PS: Time according to the following YouTube video:
http://www.youtube.com/watch?v=mmlhCC2VAXo

Intro:

0:00~0;24
e|-----------------------------0-----------0-----------0---------0----------|
B|--------------------------------------------------------------------------|
G|-2---2-0------------------------------------------------------------------|
D|-----------3-----2--------2-----2--5--2-----2--7--2-----2-----------------|
A|-3-----2---3-----2-----3-----------------------8------------------7-------|
E|-0-----0---0-----0-----0-----------0-----------0-----------+0-------------|

0:24~0:37
e|--------0----0-------------0--------------0------------0------------------|
B|--------------------------------------------------------------------------|
G|--------------------------------------------------------------------------|
D|-----------2----2--5-----2----2-5-7-----2----2----------------------------|
A|-----3----------------------------8-----------------------7---------------|
E|-+0--0-------------0------------0-0-------------+0------------------------|

0:37~0:49
e|----------------------0--------------------------0------------------------|
B|----------------------------------------------5---------------------------|
G|----------------------------------------5--4------------------------------|
D|-------------3--5--2-----2--7--2------------------------------------------|
A|-3--------------------------8--------------7------------------------------|
E|-0--------------7-----------0--------------0------------------------------|

Verse:

   Oh, that song is singing... (0:49~:1:13)
e|--------------------------------0-----------0-----------0---------0-------|
B|-5------------------------------------------------------------------------|
G|----2---2-0---------------------------------------------------------------|
D|--------------3-----2--------2-----2--5--2-----2--7--2-----2--------------|
A|----3-----2---3-----2-----3-----------------------8------------------7----|
E|----0-----0---0-----0-----0-----------0-----------0-----------+0----------|

     Oh, that song is singing... (1:13~:1:37)
e|-----------------------------0-----------0-----------0---------0----------|
B|--------------------------------------------------------------------------|
G|-2---2-0------------------------------------------------------------------|
D|-----------3-----2--------2-----2--5--2-----2--7--2-----2-----------------|
A|-3-----2---3-----2-----3-----------------------8------------------7-------|
E|-0-----0---0-----0-----0-----------0-----------0-----------+0-------------|

Pre-chorus:

It carries me... (1:37~1:49)
e|--------------------------------------------------------------------------|
B|---------1---1----3---3----5---5----------1-------------------------------|
G|-----------2---2----0---0----2---2------0---------------------------------|
D|--------------------------------------2-----------------------------------|
A|---------------------------0----------------------------------------------|
E|---------1--------3---------------------0---------------------------------|

          Carries me... (1:49~2:00)
e|--------------------------------------------------------------------------|
B|-1---1-------3---3-------5---5--------------------------------------------|
G|---2---2-------0---0-------2---2----4-------------------------------------|
D|--------------------------------------------------------------------------|
A|-------------------------0------------------------------------------------|
E|-1--------3--3--------3-------------0-------------------------------------|

Chorus:

   And swallows me... (2:00~2:19)
e|--------------------------------------------------------------------------|
B|--------------1---1----3---5-----------------1---1-1-0--------------------|
G|--------------2-2---2--0---2---4---4-----2---2-2-2-2-2--------------------|
D|-------------------------------------5------------------------------------|
A|---------------------------0-------2---2----------------------------------|
E|--------------1--------3-------0---------1---1-------1--------------------|

Verse:

2:19~2:44
e|-----------------------------0-----------0-----------0---------0----------|
B|--------------------------------------------------------------------------|
G|-2---2-0------------------------------------------------------------------|
D|-----------3-----2--------2-----2--5--2-----2--7--2-----2-----------------|
A|-3-----2---3-----2-----3-----------------------8------------------7-------|
E|-0-----0---0-----0-----0-----------0-----------0-----------+0-------------|

2:44~3:06
e|-----------------------------0--------------0-----------------------------|
B|-------------------------------------------------------------------5------|
G|-2---2-0-----------------------------------------------------5--4---------|
D|-----------3-----2--------2-----2--3--5--2-----2--7--2--------------------|
A|-3-----2---3-----2-----3--------------------------8-------------7---------|
E|-0-----0---0-----0-----0--------------7-----------0-------------0---------|

   Oh, that weight... (3:06~3:30)
e|-0---------------------------------0-----------0-----------0---------0----|
B|----5---------------------------------------------------------------------|
G|-------2---2-0------------------------------------------------------------|
D|-----------------3-----2--------2-----2--5--2-----2--7--2-----2-----------|
A|-------3-----2---3-----2-----3-----------------------8------------------7-|
E|-------0-----0---0-----0-----0-----------0-----------0-----------+0-------|

Pre-chorus:

And swallows me (3:30~3:44)               And swallows...
e|--------------------------------------------------------------------------|
B|-----------1---1----3---3----5---5----------1-----------------------------|
G|-------------2---2----0---0----2---2------0-------------------------------|
D|----------------------------------------2---------------------------------|
A|-----------------------------0--------------------------------------------|
E|-----------1--------3---------------------0-------------------------------|

...me (3:44~3:54)
e|--------------------------------------------------------------------------|
B|-1---1-------3---3-------5---5--------------------------------------------|
G|---2---2-------0---0-------2---2----4-------------------------------------|
D|--------------------------------------------------------------------------|
A|-------------------------0------------------------------------------------|
E|-1--------3--3--------3-------------0-------------------------------------|

Chorus:

   And swallows me... (3:54~4:13)
e|--------------------------------------------------------------------------|
B|--------------1---1----3---5-----------------1-------0--------------------|
G|--------------2-2---2--0---2---4---4-----2---2-------2--------------------|
D|--------------------------------------------------------------------------|
A|---------------------------0-------2--------------------------------------|
E|--------------1--------3-------0---------1---1-------1--------------------|

4:13~4:31                                     And comforts...
e|--------------------------------------------------------------------------|
B|-1--------3---5-----------------1-------0---------------------------------|
G|-2--------0---2---4---4-----2---2-------2---------------------------------|
D|--------------------------------------------------------------------------|
A|--------------0-------2---------------------------------------------------|
E|-1--------3-------0---------1---1-------1---------------------------------|

Verse:

...me (4:31~4:55)
e|-------------------------------0-----------0-----------0---------0--------|
B|--------------------------------------------------------------------------|
G|--------------------------------------------------------------------------|
D|----------------------------2-----2--5--2-----2--7--2-----2---------------|
A|-12-----10---3-----2-----3-----------------------8------------------7-----|
E|-00-----00---0-----0-----0-----------0-----------0-----------+0-----------|

Outro:

4:55~5:07
e|--------------------------------0-----------------------------------------|
B|-----------------------1------0---0---------------------------------------|
G|-----5--------4-----------------------------------------------------------|
D|---7---7----5---5----3---3------------------------------------------------|
A|--------------------------------------------------------------------------|
E|-5--------3--------1--------0---------------------------------------------|

5:07~5:19
e|--------------------------------0-----------------------------------------|
B|-----------------------1------0-----3-------------------------------------|
G|-----5--------4-------------------0---------------------------------------|
D|---7---7----5---5----3---3------------------------------------------------|
A|--------------------------------------------------------------------------|
E|-5--------3--------1--------0---------------------------------------------|

5:19~5:31
e|--------------------------------0-----------------------------------------|
B|-----------------------1------0---0---------------------------------------|
G|-----5--------4-----------------------------------------------------------|
D|---7---7----5---5----3---3------------------------------------------------|
A|--------------------------------------------------------------------------|
E|-5--------3--------1--------0---------------------------------------------|

5:31~5:43
e|--------------------------------0-----------------------------------------|
B|-----------------------1------0---0---------------------------------------|
G|-----5--------4-----------------------------------------------------------|
D|---7---7----5---5----3---3------------------------------------------------|
A|--------------------------------------------------------------------------|
E|-5--------3--------1--------0---------------------------------------------|

5:43~5:55
e|--------------------------------0-----------------------------------------|
B|-----------------------1------0-----3-------------------------------------|
G|-----5--------4-------------------0---------------------------------------|
D|---7---7----5---5----3---3------------------------------------------------|
A|--------------------------------------------------------------------------|
E|-5--------3--------1--------0---------------------------------------------|

5:55~6:07
e|--------------------------------0-----------------------------------------|
B|-----------------------1------0---0---------------------------------------|
G|-----5--------4-----------------------------------------------------------|
D|---7---7----5---5----3---3------------------------------------------------|
A|--------------------------------------------------------------------------|
E|-5--------3--------1--------0---------------------------------------------|

6:07~6:18
e|--------------------------------0-----------------------------------------|
B|-----------------------1------0---0---------------------------------------|
G|-----5--------4-----------------------------------------------------------|
D|---7---7----5---5----3---3------------------------------------------------|
A|--------------------------------------------------------------------------|
E|-5--------3--------1--------0---------------------------------------------|

And that's it. This song took me a few days to finish, so if you've got the time, 
please rate and/or comment. :)


************************************

| /   slide up
| \   slide down
| h   hammer-on
| p   pull-off
| ~   vibrato
| +   harmonic
| x   Mute note
| b   Bend
| pb  Pre-bend
| br  Bend release
| pbr Pre-bend release
| brb Bend release bend

************************************
Добавлено: 14.10.2013
Другие материалы по этой песне:
  • Аккорды и текст

Страница создана 14.10.2013
http://primanota.ru/the-cinematic-orchestra/breathe-chords.htm
Привет, Гость.
Предлагаем пройти революционный курс по гитаре.
Подарок от PrimaNota.Ru, забирай!