PrimaNota.ru - самый крупный в мире бесплатный архив песенных текстов, аккордов, табулатур и нот


The Birthday Massacre - Over - текст песни, бас-таба, видео

Регистрация Запомнить меня
Войти через:  Facebook Google Twitter Vk Yandex Mail.ru

The Birthday Massacre - Over - текст песни, бас-таба, видео

Печатать
Просмотров: 146
Уроки эстрадного вокала в Санкт-Петербурге
The Birthday Massacre - Over
Album: Nothing and Nowhere
Tabbed by: MelVinMaSsaCrE

The timing of the intro/chorus/outro is a bit tricky; I have it tabbed the best I could
get it. I'm not completely sure if there's bass in the first part of the bridge, but I
put it in there anyway because that is how I like to play it. I represented these notes 
with parentheses, or ghost notes if you will.

Tuning: Drop D (D-A-D-G, low to high)

Intro Bass begins at 0:15
G|-------------------------------|
D|-------------------------------|
A|-------------------------------|
D|66--6-9-6--9-6--9-9-9-4~-4-0-0-|x4

Verse 0:35 "He watches her while she is sleeping…"
G|----------------------|
D|----------------------|
A|----------------------|
D|6-6----2-2----4-4--40-|x4

G|--------------------------------|
D|--------------------------------|
A|--------------------------------|
D|6-6-6-6-6-6-6-6-2-2-2-2-4-4-0-0-|x4

Chorus 1:15 "Sometimes the beauty starts to die when it's over…"
G|-------------------------------|
D|-------------------------------|
A|-------------------------------|
D|66--6-9-6--9-6--9-9-9-4~-4-0-0-|x4

Verse 1:36 "She watches him as he is leaving…"
G|----------------------|
D|----------------------|
A|----------------------|
D|6-6----2-2----4-4--40-|x4

G|--------------------------------|
D|--------------------------------|
A|--------------------------------|
D|6-6-6-6-6-6-6-6-2-2-2-2-4-4-0-0-|x4

Chorus 2:16 "Sometimes the beauty starts to die when it's over…"
G|-------------------------------|
D|-------------------------------|
A|-------------------------------|
D|66--6-9-6--9-6--9-9-9-4~-4-0-0-|x4

Bridge 2:36
G|-----------------|
D|-----------------|
A|-----------------|
D|(6)~---(2)~-(4)~-|x4

G|--------------------------------|
D|--------------------------------|
A|--------------------------------|
D|6-6-6-6-6-6-6-6-2-2-2-2-4-4-4-4-|x4

Chorus 3:17 "Sometimes the beauty starts to die when it's over…"
G|-------------------------------|
D|-------------------------------|
A|-------------------------------|
D|66--6-9-6--9-6--9-9-9-4~-4-0-0-|x4

Outro 3:37
G|-------------------------------|
D|-------------------------------|
A|-------------------------------|
D|66--6-9-6--9-6--9-9-9-4~-4-0-0-|x4

I look forward to your ratings and comments. Enjoy and have fun!

Legend:
( ) =ghost note
~ =let ring
Добавлено: 27.11.2013
Другие материалы по этой песне:
  • Аккорды и текст

Страница создана 12.05.2012
http://primanota.ru/the-birthday-massacre/over-chords.htm
Привет, Гость.
Предлагаем пройти революционный курс по гитаре.
Подарок от PrimaNota.Ru, забирай!