PrimaNota.ru - самый крупный в мире бесплатный архив песенных текстов, аккордов, табулатур и нот


The Birthday Massacre - Burn Away - таба, видео

Регистрация Запомнить меня
Войти через:  Facebook Google Twitter Vk Yandex Mail.ru

The Birthday Massacre - Burn Away - таба, видео

Печатать
Просмотров: 114
-------------------------------------------------------------------------------
                             BURN AWAY - The Birthday Massacre
-------------------------------------------------------------------------------
Tabbed by: Kiera
E-mail: evanescenceguitarist@yahoo.com

Tuning: Drop D


Intro/Break
Riff 1
e|--------------------------------------------------------------------------|
B|--------------------------------------------------------------------------|
G|--------------------------------------------------------------------------|
D|--------------------------------------------------------------------------|
A|-9-9-9---9---9-9-9-9---9-7-9\---2-2-2-2-2-2-2-2-5-5-5-5-5-5-5-5-----------|
D|-9-9-9---9---9-9-9-9---9-7-9\---2-2-2-2-2-2-2-2-5-5-5-5-5-5-5-5-----------|

Riff 2
e|--------------------------------------------------------------------------|
B|--------------------------------------------------------------------------|
G|--------------------------------------------------------------------------|
D|--------------------------------------------------------------------------|
A|-9-0-9---9---9-9-9-9---9-7-9\---2-2-2-2-2-2-2-2-5-5-5-5-5-5-5-5-----------|
D|-9-0-9---9---9-9-9-9---9-7-9\---2-2-2-2-2-2-2-2-5-5-5-5-5-5-5-5-----------|

Riff 1

Riff 3
e|--------------------------------------------------------------------------|
B|--------------------------------------------------------------------------|
G|--------------------------------------------------------------------------|
D|--------------------------------------------------------------------------|
A|-0-0-0-0-0-0-0-0-7-7-7-7-7-7-7-7--2-2-2-2-2-2-2-2-5-5-5-5-5-5-5-5---------|
D|-0-0-0-0-0-0-0-0-7-7-7-7-7-7-7-7--2-2-2-2-2-2-2-2-5-5-5-5-5-5-5-5---------|


Verse (alright, this is what the bass is doing, or at least what I heard
so far, I really feel like it needs work so that'll be something that I'll 
work on, but in the mean time, here's what I got)
e|--------------------------------------------------------------------------|
B|--------------------------------------------------------------------------|
G|--------------------------------------------------------------------------|
D|--------------------------------------------------------------------------|
A|----------------------5--5------------------------------------------------|
D|-9--9---9--9-9-9-9-----------5--5-5-5-5---9--9---9--9-9-9-9---------------|


e|--------------------------------------------------------------------------|
B|--------------------------------------------------------------------------|
G|--------------------------------------------------------------------------|
D|--------------------------------------------------------------------------|
A|-----3-5------------------------------------------2-3---------------------|
D|-0-5------5--0--9-5-----9-9-9---9--9-2-2-2----0-5------5--9-7--7----------|


e|--------------------------------------------------------------------------|
B|--------------------------------------------------------------------------|
G|---------------------------------------------2----------------------------|
D|------7-------------------------2-----------------------------------------|
A|-----------------3------------2---2--------3---3--------------------------|
D|-7-10---10---7-----2--2-----2--------2---0--------------------------------|


Chorus
e|--------------------------------------------------------|
B|--------------------------------------------------------|
G|--------------------------------------------------------|
D|--------------------------------------------------------|
A|-2--2--2--2--2--2--2--2----9--9--9--9--7--7--7--7-------|
D|-2--2--2--2--2--2--2--2----9--9--9--9--7--7--7--7-------|
 |
e|--------------------------------------------------------|
B|--------------------------------------------------------|
G|-12-12-12-12-12-12-14-14---11-11-11-11-9--9--9--9-------|
D|--------------------------------------------------------|
A|--------------------------------------------------------|
D|--------------------------------------------------------|


e|--------------------------------------------------------|
B|--------------------------------------------------------|
G|--------------------------------------------------------|
D|--------------------------------------------------------|
A|-2--2--2--2--2--2--2--2----0--0--0--0--7--7--7--7-------|
D|-2--2--2--2--2--2--2--2----0--0--0--0--7--7--7--7-------|
 |
e|--------------------------------------------------------|
B|--------------------------------------------------------|
G|-12-12-12-12-12-12-14-14---11-11-11-11-9--9--9--9-------|
D|--------------------------------------------------------|
A|--------------------------------------------------------|
D|--------------------------------------------------------|


e|--------------------------------------------------------|
B|--------------------------------------------------------|
G|--------------------------------------------------------|
D|--------------------------------------------------------|
A|-10-10-10-10-10-10-10-10-10-10-10-10-10-10-10-10--------|
D|-10-10-10-10-10-10-10-10-10-10-10-10-10-10-10-10--------|
 |
e|--------------------------------------------------------|
B|--------------------------------------------------------|
G|-12-12-12-12-11-11-11-11-9--9--9--9---------------------|
D|-------------------------------------12-12-12-12--------|
A|--------------------------------------------------------|
D|--------------------------------------------------------|


e|--------------------------------------------------------|
B|--------------------------------------------------------|
G|--------------------------------------------------------|
D|--------------------------------------------------------|
A|-2--2--2--2--2--2--2--2--2--2--2--2--2--2--2--2---------|
D|-2--2--2--2--2--2--2--2--2--2--2--2--2--2--2--2---------|
 |
e|--------------------------------------------------------|
B|--------------------------------------------------------|
G|--------------------------------------------------------|
D|-9--9--9--9--9--9--9--9--9--9--9--9--12-12-12-12--------|
A|--------------------------------------------------------|
D|--------------------------------------------------------|


e|--------------------------------------------------------|
B|--------------------------------------------------------|
G|--------------------------------------------------------|
D|--------------------------------------------------------|
A|-10-10-10-10-10-10-10-10-10-10-10-10-10-10-10-10--------|
D|-10-10-10-10-10-10-10-10-10-10-10-10-10-10-10-10--------|
 |
e|--------------------------------------------------------|
B|--------------------------------------------------------|
G|-12-12-12-12-11-11-11-11-9--9--9--9---------------------|
D|-------------------------------------12-12-12-12--------|
A|--------------------------------------------------------|
D|--------------------------------------------------------|


e|--------------------------------------------------------|
B|--------------------------------------------------------|
G|--------------------------------------------------------|
D|--------------------------------------------------------|
A|-5--5--5--5--5--5--5--5--7--7--7--7--7--7--7--7---------|
D|-5--5--5--5--5--5--5--5--7--7--7--7--7--7--7--7---------|
 |
e|--------------------------------------------------------|
B|--------------------------------------------------------|
G|-14----14----14----14----11----11----11----11-----------|
D|--------------------------------------------------------|
A|--------------------------------------------------------|
D|--------------------------------------------------------|


Intro/Break
-Riff 1
-Riff 2
Verse
Chorus

Bridge
e|--------------------------------------------------------------------------|
B|--------------------------------------------------------------------------|
G|--------------------------------------------------------------------------|
D|--------------------------------------------------------------------------|
A|-9-------------2------5------9--------------2------5-------9--------------|
D|-9-------------2------5------9--------------2------5-------9--------------|
 |(keyboard more so)
e|--------------------------------------------------------------------------|
B|--------------------------------12----------------------------12----------|
G|-------12--11--9--11------9---------12--11--9--11--12--11---------12--11--|
D|----------------------12-----9-----------------------------9--------------|
A|--------------------------------------------------------------------------|
D|--------------------------------------------------------------------------|


e|---------------------------------------------|
B|---------------------------------------------|
G|---------------------------------------------|
D|---------------------------------------------|
A|-2------5------0------7-------2------5-------|
D|-2------5------0------7-------2------5-------|
 |(keyboard more so)
e|---------------------------------------------|
B|---------------------------------------------|
G|-9--11------9-----14--12--11--9--11----------|
D|--------12-----9---------------------9-------|
A|---------------------------------------------|
D|---------------------------------------------|


Chorus
Intro/Break (all riffs)

END
e|-------------|
B|-------------|
G|-------------|
D|-------------|
A|-9-----------|
D|-9-----------|


Thanks for looking :)
currently working on more TBM tabs
************************************

| /   slide up
| \   slide down
| h   hammer-on
| p   pull-off
| ~   vibrato
| +   harmonic
| x   Mute note
| b   Bend
| pb  Pre-bend
| br  Bend release
| pbr Pre-bend release
| brb Bend release bend

************************************
Добавлено: 13.11.2013
Другие материалы по этой песне:
  • Аккорды и текст

Страница создана 13.11.2013
http://primanota.ru/the-birthday-massacre/burn-away-chords.htm
Привет, Гость.
Предлагаем пройти революционный курс по гитаре.
Подарок от PrimaNota.Ru, забирай!