PrimaNota.ru - самый крупный в мире бесплатный архив песенных текстов, аккордов, табулатур и нот


The Birthday Massacre - Under The Stairs - текст песни, бас-таба, видео

Регистрация Запомнить меня
Войти через:  Facebook Google Twitter Vk Yandex Mail.ru

The Birthday Massacre - Under The Stairs - текст песни, бас-таба, видео

Печатать
Просмотров: 115
Уроки эстрадного вокала в Санкт-Петербурге
Under the stairs - The birthday massacre 

Tabbed By: rogerpirks
Tuning: DADG

Intro
G|-------------------------------------|
D|-------------------------------------|
A|--------8--8-8-----------------------|
D|8--8-8----------10--10-10--12--12-12-|x2

G|-----------------------------------------------------------------------------------|
D|-----------------------------------------------------------------------------------|
A|-----------------8-8-8-8-8-8-8-8---------------------------------------------------|
D|8-8-8-8-8-8-8-8-------------------10-10-10-10-10-10-10-10--12-12-12-12-12-12-12-12-|x2

Verse
G|-------------------------------------|
D|-------------------------------------|
A|--------8--8-8-----------------------|
D|8--8-8----------10--10-10--12--12-12-|x2

Chorus
G|---------------------------------------------------------------------------|
D|---------------------------------------------------------------------------|
A|8-8-8-8-8-8-8-8------------------------------------------------------------|
D|-----------------10-10-10-10-10-10-10-10--8-8-8-8-7-7-7-7--5-5-5-5-5-5-5-5-|x2

Verse
G|-------------------------------------|
D|-------------------------------------|
A|--------8--8-8-----------------------|
D|8--8-8----------10--10-10--12--12-12-|x2

Chorus
G|---------------------------------------------------------------------------|
D|---------------------------------------------------------------------------|
A|8-8-8-8-8-8-8-8------------------------------------------------------------|
D|-----------------10-10-10-10-10-10-10-10--8-8-8-8-7-7-7-7--5-5-5-5-5-5-5-5-|x2


Bridge
G|----------------------------------------------------------------------------------------|
D|----------------------------------------------------------------------------------------|
A|----------------888-888-777-777---------------------------------------------------------|
D|888-888-888-888-----------------10-10-10--10-10-10--10-10-10--10-10-10--555-555-777-777-|x4

Chorus
G|---------------------------------------------------------------------------|
D|---------------------------------------------------------------------------|
A|8-8-8-8-8-8-8-8------------------------------------------------------------|
D|-----------------10-10-10-10-10-10-10-10--8-8-8-8-7-7-7-7--5-5-5-5-5-5-5-5-|x4
Добавлено: 25.09.2013
Другие материалы по этой песне:
  • Аккорды и текст

Страница создана 29.03.2012
http://primanota.ru/the-birthday-massacre/under-the-stairs-chords.htm
Привет, Гость.
Предлагаем пройти революционный курс по гитаре.
Подарок от PrimaNota.Ru, забирай!