PrimaNota.ru - самый крупный в мире бесплатный архив песенных текстов, аккордов, табулатур и нот


The Birthday Massacre - Down - текст песни, таба, видео

Регистрация Запомнить меня
Войти через:  Facebook Google Twitter Vk Yandex Mail.ru

The Birthday Massacre - Down - текст песни, таба, видео

Печатать
Просмотров: 207
-------------------------------------------------------------------------------
                             DOWN - The Birthday Massacre
-------------------------------------------------------------------------------
Tabbed by: Kiera
E-mail: evanescenceguitarist@yahoo.com

Tuning: Drop D

This tab has some parts that aren't actually played on guitar but I wrote
the notes you could play to follow the bass/keys/vocals.

Intro/Riff 1
Part 1 x3
e|--------------------------------------------------------------------------|
B|--------------------------------------------------------------------------|
G|--------------------------------------------------------------------------|
D|--------------------------------------------------------------------------|
A|-6-0---0-6-0-6-0---0-6-0-----6-0---0-6-0-6-0---0-6-0---3---3--------------|
D|-6-0---0-6-0-6-0---0-6-0-----6-0---0-6-0-6-0---0-6-0---3---3--------------|

Part 2 (same as part one, just no 3's)
e|--------------------------------------------------------------------------|
B|--------------------------------------------------------------------------|
G|--------------------------------------------------------------------------|
D|--------------------------------------------------------------------------|
A|-6-0---0-6-0-6-0---0-6-0-----6-0---0-6-0-6-0---0-6-0----------------------|
D|-6-0---0-6-0-6-0---0-6-0-----6-0---0-6-0-6-0---0-6-0----------------------|


Verse x2 (2nd time is actual guitar)
e|--------------------------------------------------------------------------|
B|--------------------------------------------------------------------------|
G|--------------------------------------------------------------------------|
D|--------------------------------------------------------------------------|
A|--------------------------------------------------------------------------|
D|-0-0-0-0--0--0-0-0-0-0--0--0-10-10-10-10--10--10-10-10-10-10--10--10------|


e|--------------------------------------------------------------------------|
B|--------------------------------------------------------------------------|
G|--------------------------------------------------------------------------|
D|--------------------------------------------------------------------------|
A|--------------------------------------------------------------------------|
D|-5-5-5-5--5--5-5-5-5-5--5--5-8-8-8-8--8--8-8-8-8-8--8--8-12-12-12-12--12--|


e|--------------------------------------------------------------------------|
B|--------------------------------------------------------------------------|
G|--------------------------------------------------------------------------|
D|--------------------------------------------------------------------------|
A|--------------------------------------------------------------------------|
D|--12-12-12-12-12--12--12-10-10-10-10--10--10-10-10-10-10--10--10-5-5-5-5--|


e|--------------------------------------------------------------------------|
B|--------------------------------------------------------------------------|
G|--------------------------------------------------------------------------|
D|--------------------------------------------------------------------------|
A|--------------------------------------------------------------------------|
D|-5--5-5-5-5-5--5--5-8-8-8-8--8--8-3-3-3-3--3--3---------------------------|


Intro/Riff 1

Chorus x2
e|--------------------------------------------------------------------------|
B|--------------------------------------------------------------------------|
G|--------------------------------------------------------------------------|
D|-7-7-7-7-7-7--------------------------------------------------------------|
A|-5-5-5-5-5-5-5-5-5-5-5-5-5-5-5-5--3-3-3-3-3-3-8-8-8-8-8-8-8-8-8-8-8-------|
D|-------------5-5-5-5-5-5-5-5-5-5--3-3-3-3-3-3-8-8-8-8-8-8-8-8-8-8-8-------|


e|--------------------------------------------------------------------------|
B|--------------------------------------------------------------------------|
G|--------------------------------------------------------------------------|
D|-7-7-7-7-7-7--------------------------------------------------------------|
A|-5-5-5-5-5-5-5-5-5-5-5-5-5-5-5-5--3-3-3-3-3-3-0-0-0-0-0-0-0-0-0-0-0-------|
D|-------------5-5-5-5-5-5-5-5-5-5--3-3-3-3-3-3-0-0-0-0-0-0-0-0-0-0-0-------|


Verse x2
Intro/Riff 1
Chorus x2

Bridge
e|--------------------------------------------------------------------------|
B|--------------------------------------------------------------------------|
G|--------------------------------------------------------------------------|
D|--------------------------------------------------------------------------|
A|-8-8-8-8-8-8-8-8-8-8-8-8-8-8-8-8-8-3-3-3-3-3-3-3-3-3-3-3-3-3-3-3-3-3------|
D|-8-8-8-8-8-8-8-8-8-8-8-8-8-8-8-8-8-3-3-3-3-3-3-3-3-3-3-3-3-3-3-3-3-3------|


e|--------------------------------------------------------------------------|
B|--------------------------------------------------------------------------|
G|--------------------------------------------------------------------------|
D|--------------------------------------------------------------------------|
A|-10-10-10-10-10-10-10-10-10-10-10-10-10-10-10-10-5-5-5-5-5-5-5-5-5-5-5-5--|
D|-10-10-10-10-10-10-10-10-10-10-10-10-10-10-10-10-5-5-5-5-5-5-5-5-5-5-5-5--|


e|--------------------------------------------------------------------------|
B|--------------------------------------------------------------------------|
G|--------------------------------------------------------------------------|
D|-----------------------------------------7-7-7-7-7-7-7-7-7-7-7-7-7-7-7-7--|
A|-7-7-7-7-8-8-8-8-8-8-8-8-8-8-8-8-8-8-8-8-5-5-5-5-5-5-5-5-5-5-5-5-5-5-5-5--|
D|-7-7-7-7-8-8-8-8-8-8-8-8-8-8-8-8-8-8-8-8----------------------------------|


e|--------------------------------------------------------------------------|
B|--------------------------------------------------------------------------|
G|--------------------------------------------------------------------------|
D|--------------------------------------------------------------------------|
A|-10-10-10-10-10-10-10-10-10-10-10-10-10-10-10-10-3-3-3-3-3-3-3-3----------|
D|-10-10-10-10-10-10-10-10-10-10-10-10-10-10-10-10-3-3-3-3-3-3-3-3----------|


e|------------------------|
B|------------------------|
G|------------------------|
D|------------------------|
A|-0-0-0-0-0-0-0-0--------|
D|-0-0-0-0-0-0-0-0--------|


Intro/Riff 1

END

Thanks for looking!
I'm currently working on the rest of this album :)

************************************

| /   slide up
| \   slide down
| h   hammer-on
| p   pull-off
| ~   vibrato
| +   harmonic
| x   Mute note
| b   Bend
| pb  Pre-bend
| br  Bend release
| pbr Pre-bend release
| brb Bend release bend

************************************
Добавлено: 04.08.2013
Другие материалы по этой песне:
  • Аккорды и текст

Страница создана 04.08.2013
http://primanota.ru/the-birthday-massacre/down-chords.htm
Привет, Гость.
Предлагаем пройти революционный курс по гитаре.
Подарок от PrimaNota.Ru, забирай!