PrimaNota.ru - самый крупный в мире бесплатный архив песенных текстов, аккордов, табулатур и нот


The Birthday Massacre - Leaving Tonight - текст песни, таба, видео

Регистрация Запомнить меня
Войти через:  Facebook Google Twitter Vk Yandex Mail.ru

The Birthday Massacre - Leaving Tonight - текст песни, таба, видео

Печатать
Просмотров: 212
-------------------------------------------------------------------------------
                             LEAVING TONIGHT - The Birthday Massacre
-------------------------------------------------------------------------------
Tabbed by: Kiera
E-mail: evanescenceguitarist@yahoo.com

Tuning: Drop D

While there is no guitar until the break before the chorus, I just figured
 out the chords used/could be used. Just if you want something to play during
 those parts.

Verse 1 
Riff 1
e|--------------------------------------------------------------------------|
B|--------------------------------------------------------------------------|
G|--------------------------------------------------------------------------|
D|--------------------------------------------------------------------------|
A|--------------------------------------------------------------------------|
D|-0-0-0-0-0-0-0-0--5-5-5-5-5-5-5-5--9-9-9-9-9-9-9-9--9-9-9-9-9-9-9-9-------|
PM ___________________________________________________________________

Riff 2
e|--------------------------------------------------------------------------|
B|--------------------------------------------------------------------------|
G|--------------------------------------------------------------------------|
D|--------------------------------------------------------------------------|
A|--------------------------------------------------------------------------|
D|-5-5-5-5-5-5-5-5--0-0-0-0-0-0-0-0--9-9-9-9-9-9-9-9--9-9-9-9-9-9-9-9-------|
PM ___________________________________________________________________

Riff 3 (slight variation to 1)
e|--------------------------------------------------------------------------|
B|--------------------------------------------------------------------------|
G|--------------------------------------------------------------------------|
D|--------------------------------------------------------------------------|
A|--------------------------------------------------------------------------|
D|-12-12-12-12-12-12-12-12-5-5-5-5-5-5-5-5--9-9-9-9-9-9-9-9--9-9-9-9-9-9-9-9|
PM _________________________________________________________________________

Riff 4 x3
e|--------------------------------------------------------------------------|
B|--------------------------------------------------------------------------|
G|--------------------------------------------------------------------------|
D|--------------------------------------------------------------------------|
A|--------------------------------------------------------------------------|
D|-7-7-7-7-7-7-7-7--5-5-5-5-5-5-5-5--9-9-9-9-9-9-9-9--9-9-9-9-9-9-9-9-------|
PM ___________________________________________________________________


Verse 2
-Riff 1
-Riff 2
-Riff 3

Riff 4 x1
e|--------------------------------------------------------------------------|
B|--------------------------------------------------------------------------|
G|--------------------------------------------------------------------------|
D|--------------------------------------------------------------------------|
A|-----------------------------------9--------------------------------------|
D|-7-7-7-7-7-7-7-7--5-5-5-5-5-5-5-5--9--------------------------------------|
PM ________________________________


Riff 4 x2 (this is when the guitar actually comes in)
e|--------------------------------------------------------------------------|
B|--------------------------------------------------------------------------|
G|--------------------------------------------------------------------------|
D|--------------------------------------------------------------------------|
A|-7-7-7-7-7-7-7-7--5-5-5-5-5-5-5-5--9-9-9-9-9-9-9-9--9-9-9-9-9-9-9-9-------|
D|-7-7-7-7-7-7-7-7--5-5-5-5-5-5-5-5--9-9-9-9-9-9-9-9--9-9-9-9-9-9-9-9-------|
PM ___________________________________________________________________


Chorus (with strumming variations)
e|--------------------------------------------------------------------------|
B|--------------------------------------------------------------------------|
G|--------------------------------------------------------------------------|
D|--------------------------------------------------------------------------|
A|-7------2------9------0---5---7-------5-------9-------9-9-9-9-12-12-12-12-|
D|-7------2------9------0---5---7-------5-------9-------9-9-9-9-12-12-12-12-|


e|--------------------------------------------------------------------------|
B|--------------------------------------------------------------------------|
G|--------------------------------------------------------------------------|
D|--------------------------------------------------------------------------|
A|-7------2------9------0---5---7-------5-------9---------------------------|
D|-7------2------9------0---5---7-------5-------9---------------------------|

Verse 3
-Riff 1
-Riff 2
-Riff 3

Riff 4 variation~
e|--------------------------------------------------------------------------|
B|--------------------------------------------------------------------------|
G|--------------------------------------------------------------------------|
D|--------------------------------------------------------------------------|
A|--------------------------------------------------------------------------|
D|-7--------5---------9-----------------------------------------------------|

Chorus

Bridge
e|--------------------------------------------------------------------------|
B|--------------------------------------------------------------------------|
G|--------------------------------------------------------------------------|
D|--------------------------------------------------------------------------|
A|-7------------2------------------9-----------0-------5--------------------|
D|-7------------2------------------9-----------0-------5--------------------|
 |
e|--------------------------------------------------------------------------|
B|-/12----------14--15--14-15------12----------14--15--14-15----------------|
G|--------11------------------14---------11-------------------14------------|
D|--------------------------------------------------------------------------|
A|--------------------------------------------------------------------------|
D|--------------------------------------------------------------------------|


e|--------------------------------------------------------------------------|
B|--------------------------------------------------------------------------|
G|--------------------------------------------------------------------------|
D|--------------------------------------------------------------------------|
A|-7-----------5------------------9----------(9)----------------------------|
D|-7-----------5------------------9----------(9)----------------------------|
 |
e|-12-----------------------------------------------------------------------|
B|-------12----14--15--14-15------12----------14--15--14--------------------|
G|---------------------------14---------11----------------14----------------|
D|--------------------------------------------------------------------------|
A|--------------------------------------------------------------------------|
D|--------------------------------------------------------------------------|


Outro (same as chorus just pm-ed notes)
e|--------------------------------------------------------------------------|
B|--------------------------------------------------------------------------|
G|--------------------------------------------------------------------------|
D|--------------------------------------------------------------------------|
A|--------------------------------------------------------------------------|
D|-7-7-7-7-7-7-7-7--2-2-2-2-2-2-2-2--9-9-9-9-9-9-9-9--0-0-0-0-5-5-5-5-------|
PM___________________________________________________________________

e|--------------------------------------------------------------------------|
B|--------------------------------------------------------------------------|
G|--------------------------------------------------------------------------|
D|--------------------------------------------------------------------------|
A|--------------------------------------------------------------------------|
D|-7-7-7-7-7-7-7-7--5-5-5-5-5-5-5-5--9-9-9-9-9-9-9-9--9-9-9-9-9-9-9-9-------|
PM___________________________________________________________________

END

Thanks for looking!
I'll be working on the rest of this album probably :)
************************************

| /   slide up
| \   slide down
| h   hammer-on
| p   pull-off
| ~   vibrato
| +   harmonic
| x   Mute note
| b   Bend
| pb  Pre-bend
| br  Bend release
| pbr Pre-bend release
| brb Bend release bend

************************************
Добавлено: 19.07.2013
Другие материалы по этой песне:
  • Аккорды и текст

Страница создана 19.07.2013
http://primanota.ru/the-birthday-massacre/leaving-tonight-chords.htm
Привет, Гость.
Предлагаем пройти революционный курс по гитаре.
Подарок от PrimaNota.Ru, забирай!