PrimaNota.ru - самый крупный в мире бесплатный архив песенных текстов, аккордов, табулатур и нот


Sylosis - Sands Of Time - таба, видео

Регистрация Запомнить меня
Войти через:  Facebook Google Twitter Vk Yandex Mail.ru

Sylosis - Sands Of Time - таба, видео

Печатать
Просмотров: 141
Artist: Sylosis
Album: Edge Of The Earth
Song: Sands Of Time
Tabbed by: Dan O'Brien

Tuning: Standard (EADGBe)

Okay, this might look very confusing but basically the part from 0:25 - 0:34 is the way
it works throughout the tab. So you'll play the first bit with the 1st ending, then go
back to the original bit but with the 2nd ending instead, and so on... I probably could 
of made it easier but you know - hindsight and all that...

Please Rate :D

UPDATE (16/03/11) - Wackyman500 spotted a small mistake in the 3rd section. Thanks to
him for pointing it out :)
And FassaertS noted a missing open E on one of the riffs, so thanks to him also :)

0:00 - 0:25
e|----------------------------------------------------------------------------------------|
B|----------------------------------------------------------------------------------------|
G|----------------------4---4-5-7----4-5---7-7-9------4---4-5-7---4-5---4--5-----9-(9)/7--|
D|-------------5----------5-------5------7-------10-----5-------5-----7-------7-----------|
A|-2-----3-----3-----3--------------------------------------------------------------------|
E|-0-0-0-1-0-0---0-0-1--------------------------------------------------------------------|
Pm   . .   . .   . .

0:25 - 0:34                                             1st ending             2nd ending
e|-----------------------------------------------------|----------------------|--------|
B|-----------------------------------------------------|----------------------|--------|
G|-----------------------------------------------------|----------------------|--------|
D|-9------------9------------9------------9------------|-9---------10---------|--------|
A|---10-7---------10-7---------10-7---------10-7-------|---10-7-10----12-8-12-|-2------|
E|--------8-7-0--------8-7-0--------8-7-0--------8-7-0-|----------------------|-0------|
Pm .  . . . . . .  . . . . . .  . . . . . .  . . . . .   .  . .  .  .  . .  .

0:34 - 0:44
e|------------------|------------------|-----------------|------------------|
B|------------------|------------------|-----------------|------------------|
G|------------------|------------------|-----------------|------------------|
D|-9----------------|------------------|-----------------|------------------|
A|---10-7-----------|------------------|-2-------3-------|-2-----3----------|
E|--------8-7-0-0-0-|-000-0-000-0-000--|---3-0-3---5-1-5-|---3-0---3-0-1-0--|
Pm              . .   ... . ... . ...      . . .   . . .     . .   . . . .

0:44 - 0:53
e|------------------|-----------------|--------------------------|
B|------------------|-----------------|--------------------------|
G|------------------|-----------------|--------------------------|
D|-9----------------|-----------------|-9---------10-------------|
A|---10-7-----------|-----------------|---10-7-10----12-8-12-----|
E|--------8-7-0-0-0-|-000-0-000-0-000-|--------------------------|
Pm              . .   ... . ... . ...

0:53 - 1:12
e|---------------------|-----------------------|-----------------------|
B|---------------------|-----------------------|-----------------------|
G|---------------------|-----------------------|-----------------------|
D|-----------5---------|------------2-0-5-2-0--|-------2-0-5-2-0-------|
A|-2----3----3----3-2--|----3-----2------------|-----2-----------------|
E|-0-00-1-00---00-1-0--|-00-1-0-1--------------|-0-1-------------3*----|
Pm   ..   ..   ..        ..   . . . . . . . .    . . . . . . . .

1st Solo
Haven't worked it out properly yet so I'll add it in the near future

REPEAT PREVIOUS RIFFS

2:08 - 2:27
e|-------------------------------------------------|------------------|--------------------|
B|-------------------------------------------------|------------------|--------------------|
G|-------------------------------------------------|------------------|--------------------|
D|-------------------------------------------------|------------------|--------------------|
A|-2-----3-2-----------------------2-----3-2-------|-2-------3--------|-3/5---3/5---3------|
E|---3-0-----0-0-0-000-0-000-0-000---3-0-----0-0-0-|---3-0-3---3-0-3--|-1/3-x-1/3-x-1------|
Pm   . .       . . ... . ... . ...   . .       . .     . . .   . . .

2:27 - 2:41
e|-----------------------------------------------------|----------------------|
B|-----------------------------------------------------|----------------------|
G|-----------------------------------------------------|----------------------|
D|-9------------9------------9------------9------------|-9---------10---------|
A|---10-7---------10-7---------10-7---------10-7-------|---10-7-10----12-8-12-|
E|--------8-7-0--------8-7-0--------8-7-0--------8-7-0-|----------------------|
Pm .  . . . . . .  . . . . . .  . . . . . .  . . . . .   .  . .  .  .  . .  .

2:41 - 2:46
e|-----------------------------------------------------|
B|-----------------------------------------------------|
G|-----------------------------------------------------|
D|-9------------9------------9----------------5--------|
A|---10-7---------10-7---------10-7--------3--3--------|
E|--------8-7-0--------8-7-0--------8-7-0--1--3--------|
Pm .  . . . . . .  . . . . . .  . . . . .

2:46 - 3:04
e|------------------------------------------------------------------------|
B|------------------------------------------------------------------------|
G|------------------------------------------------------------------------|
D|-9-5---5-9-5---5-9-5---9-5---9-5--9-5---5-9-5---5--10-7---7-10-7---7----|
A|-----7-------7-------7-----7----------8-------8---------7--------7------|
E|------------------------------------------------------------------------|
Pm . . . . . . . . . . . . . . . .  . . . . . . . . . . . . . . . . . .

3:04 - 3:14
e|-----------------------------------------------------------------------|
B|-----------------------------------------------------------------------|
G|-----------------------------------------------------------------------|
D|-----------------------------------------------------------------------|
A|-9-5---5-9-5---5-9-5---5-9-5---5--5-2---2-5-2---2-5-2---2-5-2---2------|
E|-----7-------7-------7-------7--------3-------3-------3-------3--------|
Pm . . . . . . . . . . . . . . . .  . . . . . . . . . . . . . . . .

e|-----------------------------------------------------------------------|
B|-----------------------------------------------------------------------|
G|-----------------------------------------------------------------------|
D|-----------------------------------------------------------------------|
A|-9-5---5-9-5---5-9-5---5-9-5---5--10-7---7-9-7---7-10-7---7-9-7---7----|
E|-----7-------7-------7-------7---------8-------8--------8-------8------|
Pm . . . . . . . . . . . . . . . .   . . . . . . . .  . . . . . . . . .

3:14 - 3:28
e|-----------------------------------------------------------------------|
B|-----------------------------------------------------------------------|
G|-----------------------------------------------------------------------|
D|-----------------------------------------------------------------------|
A|-9-5---5-9-5---5-9-5---5-9-5---5--5-2---2-5-2---2-5-2---2-5-2---2------|
E|-----7-------7-------7-------7--------3-------3-------3-------3--------|
Pm . . . . . . . . . . . . . . . .  . . . . . . . . . . . . . . . .

e|-----------------------------------------------------------------------|
B|-----------------------------------------------------------------------|
G|-----------------------------------------------------------------------|
D|-8-4---4-8-4---4-8-4---4-8-4---4--9-6---6-8-6---6-9-6---6-8-6---6------|
A|-----6-------6-------6-------6--------7-------7-------7-------7--------|
E|-----------------------------------------------------------------------|
Pm . . . . . . . . . . . . . . . .  . . . . . . . . . . . . . . . .

e|-----------------------------------------------------------------------|
B|-----------------------------------------------------------------------|
G|-----------------------------------------------------------------------|
D|-----------------------------------------------------------------------|
A|-10-7---7-9-7---7-10-7---7-9-7---7-10-7---7-9-7---7-10-7---7-9-7---7---|
E|------8-------8--------8-------8--------8-------8--------8-------8-----|
Pm  . . . . . . . .  . . . . . . . .  . . . . . . . .  . . . . . . . .

3:28 - 3:44
e|----------------15------------20-19-------------------------------15----------------------|
B|-15b17-12----------13-12-15---------20----------20----19-------------15-13----------------|
G|----------12-9-------------------------17-16-----------------19br----------12----12-14----|
D|---------------------------------------------17----17----17-------------------14----------|
A|------------------------------------------------------------------------------------------|
E|------------------------------------------------------------------------------------------|

e|-15-----------------------------------------------------------|
B|----15-13-----------------------13----------------------------|
G|----------12----12-14-12--14b16----12~-----9--12--14br--------|
D|-------------14----------------------------X---X---X----------|
A|-------------------------------------------7--10--12br--------|
E|--------------------------------------------------------------|

e|-19-17-15----------17-15-14----------15-14-12--------------------------------|
B|----------19-17-15----------17-15-13----------15-13-12-----------------------|
G|-------------------------------------------------------14-12-11--------------|
D|----------------------------------------------------------------14-12-11-----|
A|-------------------------------------------------------------------------14--|
E|-----------------------------------------------------------------------------|

3:44 - 4:09
e|---------------------------|---------------------------------|
B|-12-13-15----(/)15-12------|--12-13-15-----------------------|
G|----------12----------12---|-----------14--/16-16-/12-12-----|
D|---------------------------|---------------------------------|
A|---------------------------|---------------------------------|
E|---------------------------|---------------------------------|

4:09 - 4:28
e|------------------------|-----------------------|-----------------------|
B|------------------------|-----------------------|-----------------------|
G|------------------------|-----------------------|-----------------------|
D|-------------5----------|------------2-0-5-2-0--|-------2-0-5-2-0-------|
A|-2-----3-----3-----3-2--|----3-----2------------|-----2-----------------|
E|-0-000-1-000---000-1-0--|-00-1-0-1--------------|-0-1-------------3*----|
Pm   ...   ...   ...        ..   . . . . . . . .    . . . . . . . .

4:28 - 4:37
e|--------------------------------------------------------------------|
B|--------------------------------------------------------------------|
G|--------------------------------------------------------------------|
D|--------------------------------------------------------------------|
A|-------------------------------------------------555-5-555-555-555--|
E|-700-0-700-700-700-0-000-000-000--111-1-111-111---------------------|
Pm ... . ... ... ... . ... ... ...  ... . ... ...  ... . ... ... ...

4:37 - 4:59
e|------------------------|-----------------------|-----------------------|
B|------------------------|-----------------------|-----------------------|
G|------------------------|-----------------------|-----------------------|
D|-------------5----------|------------2-0-5-2-0--|-------2-0-5-2-0-------|
A|-2-----3-----3-----3-2--|----3-----2------------|-----2-----------------|
E|-0-000-1-000---000-1-0--|-00-1-0-1--------------|-0-1-------------3*----|
Pm   ...   ...   ...        ..   . . . . . . . .    . . . . . . . .

End with...
e|----------------------------|-------------------------------------|
B|----------------------------|-------------------------------------|
G|----------------------------|-------------------------------------|
D|-------2-0-5-2-0------------|-------------------------------------|
A|-----2-----------3-2--------|-2-----3-2-------3/5---3/5---3-2-----|
E|-0-1-----------------3-1-0--|---3-0-----0-0-0-1/3-x-1/3-x-1-0-----|
Pm . . . . . . . . . . . . .      . .       . .               .

There ya go ;)
Добавлено: 26.07.2012
Другие материалы по этой песне:

Страница создана 10.05.2012
http://primanota.ru/sylosis/sands-of-time-chords.htm
Привет, Гость.
Предлагаем пройти революционный курс по гитаре.
Подарок от PrimaNota.Ru, забирай!