PrimaNota.ru - самый крупный в мире бесплатный архив песенных текстов, аккордов, табулатур и нот


Sylosis - Born Anew - таба, видео

Регистрация Запомнить меня
Войти через:  Facebook Google Twitter Vk Yandex Mail.ru

Sylosis - Born Anew - таба, видео

Печатать
Просмотров: 178
Band:   Sylosis
Song:   Born Anew
Album:  Monolith (2012)
Tuning: E Standard (E, A, D, G, B, E)

Second single to Monolith! Amazing solo
I have the signed version of the album pre-ordered so as soon as it
arrives I shall start tabbing the new Sylosis album :)

I'm not 100% on the solo so any corrections will be awesome and 
I shall add it with credit from whoever made the correction!!!
Comments and corrections are welcome! Please rate :)



Guitar 1: Josh Middleton
Guitar 2: Alex Bailey



Tabbing Legend
Hammer on:          h
Pull off:           p
Slide up:           /
Slide down:         \
Vibrato:            ~~~
Bend:               BU(?)
Trill:              tr
Tapped Note:        T
Touch Harmonic:     TH

_______________________________________________________________________________________


Verse 1
Both guitars
|-----------------------------------------------------------------------------------|
|-----------------------------------------------------------------------------------|
|-----------------------------------------------------------------------------------|
|-----------------------------------------------------------------------------------|
|-----------------------------------------------------------------------------------|
|-12p10-0-0-12p10-12p10-0-0-12p10-0-0-12p10-12p10-0-0-12p10-0-0-12p10-0-0-12p10-0-0-|

|-----------------------------------------------------------------------------------|
|-----------------------------------------------------------------------------------|
|-----------------------------------------------------------------------------------|
|-----------------------------------------------------------------------------------|
|-----------------------------------------------------------------------------------|
|-13p12-0-0-13p12-13p12-0-0-13p12-0-0-13p12-13p12-0-0-13p12-0-0-13p12-0-0-13p12-0-0-|

Guitar 1
|-----------------------------------------------------------------------------------|
|-----------------------------------------------------------------------------------|
|-----------------------------------------------------------------------------------|
|-----------------------------------------------------------------------------------|
|-----------------------------------------------------------------------------------|
|-12p10-0-0-12p10-12p10-0-0-12p10-0-0-12p10-12p10-0-0-12p10-0-0-12p10-0-0-12p10-0-0-|
|
|Guitar 2
|-----------------------------------------------------------------------------------|
|-----------------------------------------------------------------------------------|
|-----------------------------------------------------------------------------------|
|-----------------------------------------------------------------------------------|
|-----------------------------------------------------------------------------------|
|-19p17-0-0-19p17-19p17-0-0-19p17-0-0-19p17-19p17-0-0-19p17-0-0-19p17-0-0-12\-------|

Guitar 1
|-----------------------------------------------------------------------------------|
|-----------------------------------------------------------------------------------|
|-----------------------------------------------------------------------------------|
|-----------------------------------------------------------------------------------|
|-----------------------------------------------------------------------------------|
|-13p12-0-0-13p12-13p12-0-0-13p12-0-0-13p12-13p12-0-0-13p12-0-0-13p12-0-0-13p12-0-0-|
|
|Guitar 2
|-----------------------------------------------------------------------------------|
|-----------------------------------------------------------------------------------|
|-----------------------------------------------------------------------------------|
|-----------------------------------------------------------------------------------|
|-----------------------------------------------------------------------------------|
|-20p19-0-0-20p19-20p19-0-0-20p19-0-0-20p19-20p19-0-0-20p19-0-0-20p19-0-0-12\-------|

_______________________________________________________________________________________


Verse 2
Both guitars
|------------------------------------------------------------------------|
|------------------------------------------------------------------------|
|------------------------------------------------------------------------|
|------------------------------------------------------------------------|
|------------------------------------------------------------------------|
|-0-0-0-0-0-0-0-0-0-0-0-0-0-0-0-0-0-0-12p10-12p10-0-0-10p8-0-0-13p12-0-0-|

Guitar 1
|-----------------------------------------------------------------|
|-----------------------------------------------------------------|
|-----------------------------------------------------------------|
|-----------------------------------------------------------------|
|------------------------------------------------/7---8---5---8---|
|-4-4-4-4-4-4-4-4-4-4-4-4-4-4-4-4-4-4-4-4-4-4-4-4-----------------|
|
|Guitar 2
|-----------------------------------------------------------------|
|-----------------------------------------------------------------|
|-----------------------------------------------------------------|
|------------------------------------------------/9--10---7--10---|
|-----------------------------------------------------------------|
|-4-4-4-4-4-4-4-4-4-4-4-4-4-4-4-4-4-4-4-4-4-4-4-4-----------------|

Both guitars
|------------------------------------------------------------------------|
|------------------------------------------------------------------------|
|------------------------------------------------------------------------|
|------------------------------------------------------------------------|
|------------------------------------------------------------------------|
|-0-0-0-0-0-0-0-0-0-0-0-0-0-0-0-0-0-0-12p10-12p10-0-0-10p8-0-0-13p12-0-0-|

|-----------------------------------------------------------------|
|-----------------------------------------------------------------|
|-----------------------------------------------------------------|
|-----------------------------------------------------------------|
|-----------------6-----------------------3---------------7-------|
|-4-4-4-4-4-4-4-4-4-------1-1-1-1-1-1-1-1-1-------5-5-5-5-5-------|

_______________________________________________________________________________________


Verse 3
Both guitars
|-----------------------------------------------------------------|
|-----------------------------------------------------------------|
|-----------------------------------------------------------------|
|-----------------------------------------------------------------|
|-7-----7-----7(7)7-----7-----7---3-3-3-7-7-7-2-2-2-3-3-3-7-7-2-2-|
|-4-4-4-4-4-4-4/5-5-5-5-5-5-5-5-5-1-1-1-5-5-5-0-0-0-1-1-1-5-5-0-0-|

|-----------------------------------------------------------------|
|-----------------------------------------------------------------|
|-----------------------------------------------------------------|
|-----------------------------------------------------------------|
|-7-----7-----7(7)7-----7-----7---2-2-2-2-2-2-2-2-2-2-2-2-2-2-2-2-|
|-4-4-4-4-4-4-4/5-5-5-5-5-5-5-5-5-0-0-0-0-0-0-0-0-0-0-0-0-0-0-0-0-|

|-----------------------------------------------------------------|
|-----------------------------------------------------------------|
|-----------------------------------------------------------------|
|-----------------------------------------------------------------|
|-7-----7-----7(7)7-----7-----7---3-3-3-7-7-7-2-2-2-3-3-3-7-7-2-2-|
|-4-4-4-4-4-4-4/5-5-5-5-5-5-5-5-5-1-1-1-5-5-5-0-0-0-1-1-1-5-5-0-0-|

|-----------------------------------------------------------------|
|-----------------------------------------------------------------|
|-----------------------------------------------------------------|
|---------------------------------------------------------2-------|
|-7-----7-----7(7)7-----7-----7---2-2-2-2-2-2-2-2-2-2-2-2-2-------|
|-4-4-4-4-4-4-4/5-5-5-5-5-5-5-5-5-0-0-0-0-0-0-0-0-0-0-0-0-0-------|

_______________________________________________________________________________________


Repeat Verse 2

_______________________________________________________________________________________


Verse 3 Variation
Both guitars
|-----------------------------------------------------------------|
|-----------------------------------------------------------------|
|-----------------------------------------------------------------|
|-----------------------------------------------------------------|
|-7-----7-----7(7)7-----7-----7---3-3-3-7-7-7-2-2-2-3-3-3-7-7-2-2-|
|-4-4-4-4-4-4-4/5-5-5-5-5-5-5-5-5-1-1-1-5-5-5-0-0-0-1-1-1-5-5-0-0-|

|-----------------------------------------------------------------|
|-----------------------------------------------------------------|
|-----------------------------------------------------------------|
|-----------------------------------------------------------------|
|-7-----7-----7(7)7-----7-----7---2-2-2-2-2-2-2-2-2-2-2-2-2-2-2-2-|
|-4-4-4-4-4-4-4/5-5-5-5-5-5-5-5-5-0-0-0-0-0-0-0-0-0-0-0-0-0-0-0-0-|

|-----------------------------------------------------------------|
|-----------------------------------------------------------------|
|-----------------------------------------------------------------|
|-----------------------------------------------------------------|
|-7-----7-----7(7)7-----7-----7---3-3-3-7-7-7-2-2-2-3-3-3-7-7-2-2-|
|-4-4-4-4-4-4-4/5-5-5-5-5-5-5-5-5-1-1-1-5-5-5-0-0-0-1-1-1-5-5-0-0-|

|---------------------------------|
|---------------------------------|
|---------------------------------|
|---------------------------------|
|-7-----7-----7(7)7-----7-----7---|
|-4-4-4-4-4-4-4/5-5-5-5-5-5-5-5-5-|

_______________________________________________________________________________________


Bridge
Both guitars
|-----------------------------------------------------------------|
|-----------------------------------------------------------------|
|-----------------------------------------------------------------|
|-2---------------2---------------6-------------------------------|
|-2---------------3---------------6-------------------------------|
|-0---------------0---------------4-------------------------1-4-1-|

Guitar 1
||-----------------------------------------------------------------||
|o-----------------------------------------------------------------o|
||-9-/10---9-/10---9-/10---9-/10---5-------------------------------|| x3
||-----------------------------------------------------------------||
|o-7-/-8---7-/-8---7-/-8---7-/-8---3-------------------------------o|
||-----------------------------------------------------------------||
|
|Guitar 2
||-----------------------------------------------------------------||
|o-----------------------------------------------------------------o|
||-----------------------------------------------------------------|| x3
||-2-------------------------------6-------------------------------||
|o-2-------------------------------6-------------------------------o|
||-0-------------------------------4-------------------------1-4-1-||

Guitar 1
||-------------------------------|
|o-------------------------------|
||-9-/10---9-/10---9-/10---9-/10-|
||-------------------------------|
|o-7-/-8---7-/-8---7-/-8---7-/-8-|
||-------------------------------|
|
|Guitar 2
|--------------------------------|
|--------------------------------|
|--------------------------------|
|-2------------------------------|
|-2------------------------------|
|-0------------------------------|

_______________________________________________________________________________________


Solo part 1
Guitar 2 (Rhythm)
|-----------------------------------------------------------------|
|-----------------------------------------------------------------|
|-----------------------------------------------------------------|
|-6-------------------------------2-------------------------------|
|-6-------------------------------2-------------------------------|
|-4-------------------------1-4-1-0-------------------------------|

Guitar 1 (Lead)
|---------------11tr15--------15tr18----------------------|
|---------------------------------------------------------|
|--------12tr13--------13tr15---------------13tr15-12tr13-|
|------------------------------------15tr17---------------|
|-10tr11--------------------------------------------------|
|---------------------------------------------------------|

|------------8tr12-------12tr15--------------------|
|-------------------------------12tr13-9tr12-------|
|------9tr10-------9tr10---------------------9tr10-|
|--------------------------------------------------|
|-7tr8---------------------------------------------|
|--------------------------------------------------|

|---------------11tr15--------15tr18----------------------|
|---------------------------------------------------------|
|--------12tr13--------13tr15---------------13tr15-12tr13-|
|------------------------------------15tr17---------------|
|-10tr11--------------------------------------------------|
|---------------------------------------------------------|

|------------8tr12-------12tr15--------------------|
|-------------------------------12tr13-9tr12-------|
|------9tr10-------9tr10---------------------9tr10-|
|--------------------------------------------------|
|-7tr8---------------------------------------------|
|--------------------------------------------------|

Part 2
                               T
|---------11h15p11------11h15-18p15p11---|----------------------------------------|
|-------13--------13--13--------------13-|-8-9-8----8---------11-13-11-9-11-9-8-9-|
|-----12------------12-------------------|-------10---10-8-10---------------------|
|---13-----------------------------------|----------------------------------------|
|-15-------------------------------------|----------------------------------------|
|----------------------------------------|----------------------------------------|

                          T
|--------8h12p8-----8h12-15p12p8---|--------------------------------------|
|------10------10-10------------10-|-8-9-8----8---------9-11-9-8-9-8----8-|
|-----8----------8-----------------|-------10---10-8-10--------------10---|
|---10-----------------------------|--------------------------------------|
|-12-------------------------------|--------------------------------------|
|----------------------------------|--------------------------------------|

                               T
|---------11h15p11------11h15-18p15p11---|----------------------------------------|
|-------13--------13--13--------------13-|-8-9-8----8---------11-13-11-9-11-9-8-9-|
|-----12------------12-------------------|-------10---10-8-10---------------------|
|---13-----------------------------------|----------------------------------------|
|-15-------------------------------------|----------------------------------------|
|----------------------------------------|----------------------------------------|

                          T
|--------8h12p8-----8h12-15p12p8---|--------------------------------------|
|------10------10-10------------10-|-8-9-8----8---------9-11-9-8-9-8----8-|
|-----8----------8-----------------|-------10---10-8-10--------------10---|
|---10-----------------------------|--------------------------------------|
|-12-------------------------------|--------------------------------------|
|----------------------------------|--------------------------------------|

Part 3
|------------------------------------------------|
|------------------------------------------------|
|-------------8-------7BU(8)(7)-------/12--------|
|-10-10-10-10---10-10-----------10----------10---|
|------------------------------------------------|
|------------------------------------------------|

|------------------------12~~~~~~-|
|--------------------/12----12~~~-|
|-9-h-10p9----9-9~~~~-------------|
|----------10---------------------|
|---------------------------------|
|---------------------------------|

|------------------------------------------------------------------|
|-------------------------------------------------------------8~~~-|
|-------------8-------7BU(8)(7)----------7-8-10-8-7----7-8-10------|
|-10-10-10-10---10-10-------------6-8-10------------10-------------|
|------------------------------------------------------------------|
|------------------------------------------------------------------|

|-------------------------|
|-------------------------|
|-/9-10-------------------|
|-------9-10-7-6----------|
|----------------8-7-7~~~-|
|-------------------------|

Part 4
|------------------------------------------------|
|------------------------------------------------|
|-------------8-------7BU(8)(7)-------/12--------|
|-10-10-10-10---10-10-----------10----------10---|
|------------------------------------------------|
|------------------------------------------------|

|-16-13-12-13-12-10-12-10----10------------------------------------|
|-------------------------13----13-12-13-12-10-12-10~--9~----------|
|----------------------------------------------------------7~--9~--|
|------------------------------------------------------------------|
|------------------------------------------------------------------|
|------------------------------------------------------------------|

   T     T     T     T     T     T     T    T    T    T    T    T
|-22p10-22p10-22p10-22p10-22p10-22p10-------------------------------|
|-------------------------------------21p9-21p9-21p9-21p9-21p9-21p9-|
|-------------------------------------------------------------------|
|-------------------------------------------------------------------|
|-------------------------------------------------------------------|
|-------------------------------------------------------------------|

   T     T     T    T    T    T
|-22p10-22p10---------------------------------|
|-------------21p9-21p9-----------------------|
|-----------------------21p9-21p9-(21)TH9~~~~-|
|---------------------------------------------|
|---------------------------------------------|
|---------------------------------------------|

_______________________________________________________________________________________


Repeat Verse 1

_______________________________________________________________________________________


Verse 4
Both guitars
|-----------------------------------------------|
|-----------------------------------------------|
|-----------------------------------------------|
|-----------------------------2-----------------|
|-----------------------------2-----------------|
|-12p10-0-0-12p10-12p10-0-000-0---000-000-000-0-|

|-----------------------------------------------|
|-----------------------------------------------|
|-----------------------------------------------|
|-----------------------------------------------|
|-------------------------------------3-------7-|
|-12p10-0-0-12p10-12p10-0-000-0---11111---55555-|

|-----------------------------------------------|
|-----------------------------------------------|
|-----------------------------------------------|
|-----------------------------------------------|
|-----------------------------3---2-------------|
|-12p10-0-0-12p10-12p10-0-000-0---0---000-000-0-|

|---------------------------------|
|---------------------------------|
|---------------------------------|
|-------2-------------------------|
|---------------------------------|
|-0-1-4---1p0-0-0-0/5---x/8---7---|


_______________________________________________________________________________________


Verse 5
Both guitars
|---------------------------------|
|---------------------------------|
|---------------------------------|
|---------------------------------|
|-7-----------7---7-----------7---|
|-4---4-4-4-4-4---5---5-5-5-5-5---|

Guitar 1
|---------------------------------|
|---------------------------------|
|---------------------------------|
|-----------4---2---5---4---------|
|-2-----3---2---0---3---2---5-8-7-|
|-0---0-1-0---0---0---0---0-------|
|
|Guitar 2
|----------------------------------|
|----------------------------------|
|----------------------------------|
|-----------4---2---5---4---7-10-9-|
|-2-----3---2---0---3---2----------|
|-0---0-1-0---0---0---0---0--------|

_______________________________________________________________________________________


Outro
Both guitars
|-----------------------------------------------------------------------------------|
|-----------------------------------------------------------------------------------|
|-----------------------------------------------------------------------------------|
|-----------------------------------------------------------------------2-----------|
|-----------------------------------------------------------------------2-----------|
|-12p10-0-0-12p10-12p10-0-0-12p10-0-0-12p10-12p10-0-0-12p10-0-0-0-1-5-1-0-----------|

_______________________________________________________________________________________

That's all guys, please rate :)
Добавлено: 21.10.2013
Другие материалы по этой песне:

Страница создана 08.07.2013
http://primanota.ru/sylosis/born-anew-chords.htm
Привет, Гость.
Предлагаем пройти революционный курс по гитаре.
Подарок от PrimaNota.Ru, забирай!