PrimaNota.ru - самый крупный в мире бесплатный архив песенных текстов, аккордов, табулатур и нот


Sylosis - Enshrined - таба, видео

Регистрация Запомнить меня
Войти через:  Facebook Google Twitter Vk Yandex Mail.ru

Sylosis - Enshrined - таба, видео

Печатать
Просмотров: 109
Artist: Sylosis
Album: Monolith (2012)
Song: Enshrined (Ghost Track)
Tabbed by: sylosis1098@hotmail.co.uk

Tuning: Standard (EADGBe)

This is the tab for the secret track at the end of Enshrined. Enjoy!!


Verse  
e|-----------------------------------5------------------------------------0----|
B|-3---------3---------3---------5------3---------3---------3---------1--------|
G|---4---------4---------4---------5------4---------4---------4---------2------|
D|-----4---------4---------4----------------4---------4---------4--------------|
A|-2-----2---2-----2---2-----2---3------2-----2---2-----2---2-----2---0--------|
E|-----------------------------------------------------------------------------|

e|--------------2------------|
B|----------------0----------|
G|-----0------0-----0--------|
D|---2------2----------------|
A|---------------------------|
E|-3------2-----------2------|


Pre Chorus
e|----------------------------------------------------------|-----2------5-------|
B|---------------------1-0-----------------------3----------|-----3------5-------|
G|---0------0--------------------0------0------0-----0------|-----4------7-------|
D|-----4-----------2---------------4---------2-----4---2----|-----4------7-------|
A|-5------8---8--0---0-----0---5------8---8-----------------|--2--2---5--5-------|
E|----------------------------------------------------------|--2--2---5--5-------|


Chorus
e|-0---0---0---0---0---|--0--------|
B|-0---0---0---0---0---|--0--------|
G|-0---0---0---0---0---|--2--------|
D|-2---2---2---0---2---|--3--------|
A|-2---3---2---2---3---|--3--------|
E|-0---3---0---2---3---|--1--------|
____________________________________ Strum all these chords 


Solo
e|----------------------------------------------------|
B|---------------------------19v---17v---15v----------|
G|-11-12-/14-12-11-9/11---16--------------------------|
D|----------------------------------------------------|
A|----------------------------------------------------|
E|----------------------------------------------------|


Ending
e|---------|------------------------------------------------------------|
B|-----0---|----0-0-----------------------------------------------------|
G|-----2---|----2-2-----------------------------------------------------|
D|-3---3---|----3-3-----------------------------------------------------| 
A|-3---3---|------------------------------------------------------------|
E|-1---1---|--------1-1-1-1-1-1-1-1-1-1-1-1-1-1-1-1-1-1-1-1-1-1-1-1-----|

e|-------------------------------------------------|
B|-------------------------------------------------|
G|-------------------------------------------------|
D|-5---4--5--8---7--5--2--10--9--5--6--5-----5-----|
A|----------------------------------------6--------|
E|-------------------------------------------------|


Any corrections send to my email :)
Добавлено: 17.08.2013
Другие материалы по этой песне:

Страница создана 24.07.2013
http://primanota.ru/sylosis/enshrined-chords.htm
Привет, Гость.
Предлагаем пройти революционный курс по гитаре.
Подарок от PrimaNota.Ru, забирай!