PrimaNota.ru - самый крупный в мире бесплатный архив песенных текстов, аккордов, табулатур и нот


Swallow The Sun - Deadly Nightshade - текст песни, таба, видео

Регистрация Запомнить меня
Войти через:  Facebook Google Twitter Vk Yandex Mail.ru

Swallow The Sun - Deadly Nightshade - текст песни, таба, видео

Печатать
Просмотров: 190
Авторы музыки: Juha Raivio
Авторы текста: Juha Raivio
-------------------------------------------------------------------------------
                       DEADLY NIGHTSHADE - Swallow The Sun
-------------------------------------------------------------------------------

Tuning: Drop C


I was shocked to find out this great song was not tabbed yet.
So I made the tab myself. This is a lot of fun to play!


Intro:
D|-----------------------------------------------------|
A|-----------------------------------------------------|
F|-----------------------------------------------------|
C|-----------------------------------------------------|
G|-----------------------------------------------------|
C|---0-0-0-3-2-0-7-7-7-7-7-7-8-8-8-8-8-8-6-6-6-6-6-6---|

D|-------------------------------------------------|
A|-------------------------------------------------|
F|-------------------------------------------------|
C|-------------------------------------------------|
G|-------------------------------------------------|
C|---0-0-0-3-2-0-7-7-7-7-7-7-8-8-8-8-8-8-6-6-6-6---|



Bridge to verse and between verses, also serves as outro (x 4):
D|-----------------------------------------------------|
A|-----------------------------------------------------|
F|-----------------------------------------------------|
C|---0-0-0-3-2-0-7-7-7-7-7-7-8-8-8-8-8-8-6-6-6-6-6-6---|
G|---0-0-0-3-2-0-7-7-7-7-7-7-8-8-8-8-8-8-6-6-6-6-6-6---|
C|---0-0-0-3-2-0-7-7-7-7-7-7-8-8-8-8-8-8-6-6-6-6-6-6---| (x 2)



Verse:
D|---------------------------------------------------------------|
A|---------------------------------------------------------------|
F|--------------------10-10-10-9-9-------------------3-3-3-6-6---|
C|---0--0-0-0--0-0-0----------------0--0-0-0--0-0-0--------------|
G|---0--0-0-0--0-0-0---8--8--8-7-7--0--0-0-0--0-0-0--1-1-1-4-4---|
C|---0--0-0-0--0-0-0----------------0--0-0-0--0-0-0--------------|
PM      . .    . .                     . .    . .

D|------------------------------------------------------------|
A|------------------------------------------------------------|
F|--------------------10-10-10-9-9----------------------------|
C|---0--0-0-0--0-0-0----------------3-3-3-3-3-3-7-7-7-7-7-7---|
G|---0--0-0-0--0-0-0---8--8--8-7-7--3-3-3-3-3-3-7-7-7-7-7-7---|
C|---0--0-0-0--0-0-0----------------3-3-3-3-3-3-7-7-7-7-7-7---|
PM      . .    . .



Pre-chorus:
("The veil of fog covers her velvet skin...")
D|------------------------|-----------|
A|------------------------|-----------|
F|---10-9-9---7-7-7-9-9---|-9-5-5---5-|
C|------------------------|-----------|
G|----8-7-7---5-5-5-7-7---|-7-3-3---3-|
C|------------------------|-----------| (x 2)
            (x 3)



Chorus:
("The whispers from her lips and her screams...")

D|--------------------|
A|--------------------|
F|---14---------------|
C|-------15--14--15---|
G|--------------------|
C|--------------------| (x 3)

D|--------------------|
A|--------------------|
F|---14---------------|
C|-------15--14--12---|
G|--------------------|
C|--------------------|



Chorus background chords:
D|-------------------------|
A|-------------------------|
F|-------------------------|
C|---0-----5-----8-----9---|
G|---0-----5-----8-----9---|
C|---0-----5-----8-----9---| (x 2)



Solo (03:45):
The solo starts with these bends, both multiple times.
Listen to the song for the timing and rhytm:
D|---------------|---------------|
A|---14b15br14---|---13b14br13---|
F|---------------|---------------|
C|---------------|---------------|
G|---------------|---------------|
C|---------------|---------------|

(03:51)
D|------------------------------------18-17-14~-----15---------------------|
A|---------------------------16-15b16--------------------16--------15+~\---|
F|---14----------------15-14----------------------------------17-----------|
C|------15-12-------12-----------------------------------------------------|
G|------------10-14--------------------------------------------------------|
C|-------------------------------------------------------------------------|

(03:58)
D|-------------------------------------------------------------------|
A|----------------------------17-18-17-------------------------------|
F|-------------------------------------17-14-------------------------|
C|---15~---14~---15~\---15~------------------17-15----15-14----------|
G|-------------------------------------------------17----------------|
C|----------------------------------------------------------17-15~---|

(04:04)
D|--------------------------------------------------|
A|--------------------------------------------------|
F|--------------------------------------------------|
C|---------------------10-12-10---------------------|
G|------------10-12-13----------12-10---------------|
C|---17-15-15-------------------------19-17-15-17---|

(04:06)
D|--------------------------------------------------------------------------------|
A|---------------------------------------------------------15-13-15-13------------|
F|---------------------12-14-12----------------------12-14-------------15-14-12---|
C|------------12-14-15----------15-14-12----12-14-15------------------------------|
G|---12-13-15----------------------------15---------------------------------------|
C|--------------------------------------------------------------------------------|

(04:07)
D|-------------------------|
A|-------------------------|
F|-------------------------|
C|---15-14-12----12-14+~---|
G|------------15-----------|
C|-------------------------|



Solo background guitar:
D|------------------------------------------------------------|
A|------------------------------------------------------------|
F|--------------------3-3-3-6-6-------------------------------|
C|---0--0-0-0--0-0-0-------------0--0-0-0--0-0-0--------------|
G|---0--0-0-0--0-0-0--1-1-1-4-4--0--0-0-0--0-0-0--3-3-3-7-7---|
C|---0--0-0-0--0-0-0-------------0--0-0-0--0-0-0--3-3-3-7-7---|
PM      . .    . .                  . .    . .

D|-------------------------------------------------------|
A|-------------------------------------------------------|
F|--------------------3-3-3-6-6--------------------------|
C|---0--0-0-0--0-0-0-------------0--0-0-0--0-0-0-0--5+---|
G|---0--0-0-0--0-0-0--1-1-1-4-4--0--0-0-0--0-0-0-0--5+---|
C|---0--0-0-0--0-0-0-------------0--0-0-0--0-0-0-0-------|
PM      . .    . .                  . .    . . .



Repeat the upper two bars x 2, then:
D|-------------------------|
A|-------------------------|
F|-------------------------|
C|---0-----7-----3-----7---|
G|---0-----7-----3-----7---|
C|---0-----7-----3-----7---|

D|-------------------------|
A|-------------------------|
F|-------------------------|
C|---0-----7-----3-----8---|
G|---0-----7-----3-----8---|
C|---0-----7-----3-----8---|



Clean melody at the end of the solo:
D|-----------1-------|
A|-------------------|
F|---------------3---|
C|-------3-----------|
G|---1---------------|
C|-------------------|



************************************

| /   slide up
| \   slide down
| h   hammer-on
| p   pull-off
| ~   vibrato
| +   harmonic
| b   Bend
| br  Bend release

************************************
Добавлено: 12.07.2012
Другие материалы по этой песне:
  • Аккорды и текст

Страница создана 12.07.2012
http://primanota.ru/swallow-the-sun/deadly-nightshade-chords.htm
Привет, Гость.
Предлагаем пройти революционный курс по гитаре.
Подарок от PrimaNota.Ru, забирай!