PrimaNota.ru - самый крупный в мире бесплатный архив песенных текстов, аккордов, табулатур и нот


Swallow The Sun - Fragile - текст песни, таба, видео

Регистрация Запомнить меня
Войти через:  Facebook Google Twitter Vk Yandex Mail.ru

Swallow The Sun - Fragile - текст песни, таба, видео

Печатать
Просмотров: 106
Авторы музыки: Aleksi Munter
Авторы текста: Aleksi Munter
As recorded by Swallow The Sun
(From the 2005 Album GHOSTS OF LOSS)


Transcribed by Danny Heater
Published by Jerry Brown jr.
Blackritual0@yahoo.com

 Words and Music by Aleksi Munter

 

C#5
x 4 6 6 x x G#5
6 6 6 x x x F#5
4 4 4 x x x B5
x 2 4 4 x x 
Eb5
1 1 1 x x x D#5
1 1 1 x x x 


Gtr I (C G C F A D) - 'Untitled'
Gtr II (C G C F A D) - 'Untitled'
Gtr III (C G C F A D) - 'Untitled'
Gtr IV (C G C F A D) - 'Untitled'
Gtr V (C G C F A D) - 'Untitled'
Gtr VI (C G C F A D) - 'Untitled'


 Intro
  Q=120
  C#5
 4/4
  Gtr I
   E  E E  E  E E  E  E     E   E E E E  E  E E
   |  | |  |  | |  |  |     |   | | | |  |  | |
   /  / /  /  / /  /  /     /   / / / /  /  / /

  Gtr II
   E  E E  E  E E  E  E     E   E E E E  E  E E
|-----------------------|-----------------------|
|-----------------------|-------9-9-9-9---------|
|--8--8-8--9--9-9--8--9-|---9------------9--9-9-|
|-----------------------|-----------------------|
|-----------------------|-----------------------|
|-----------------------|-----------------------|
|
| Gtr III
|  E  E E  E  E E  E  E     E   E E E E  E  E E
|-----------------------|-----------------------|
|-----------------------|-----------------------|
|-----------------------|-------6-6-6-6--6--6-6-|
|--6--6-6--6--6-6--6--6-|---6-------------------|
|-----------------------|-----------------------|
|-----------------------|-----------------------|
|
| Gtr IV
|  Q.      Q.      E  E    +E   H        Q.
|-----------------------|------16---------------|
|-16------17------16-17-|-(17)----------17------|
|--6--------------------|--(6)------------------|
|--6--------------------|--(6)------------------|
|--4--------------------|--(4)------------------|
|-----------------------|-----------------------|
   W                       +W


   E  E E  E  E E  E E    E  E E E   E   E  E E
   |  | |  |  | |  | |    |  | | |   |   |  | |
   /  / /  /  / /  / /    /  / / /   /   /  / /

   E  E E  E  E E  E E    E  E E E   E   E  E E
|----------------------|-------------------------|
|--8--8-8--9--9-9------|-------------------------|
|------------------8-8-|--9--9-9-9---9---8--8-8--|
|----------------------|-------------------------|
|----------------------|-------------------------|
|----------------------|-------------------------|
|
|  E  E E  E  E E  E E    E  E E E   E   E  E E
|----------------------|-------------------------|
|----------------------|-------------------------|
|--6--6-6--6--6-6--6-6-|--6--6-6-6---6---6--6-6--|
|----------------------|-------------------------|
|----------------------|-------------------------|
|----------------------|-------------------------|
|
|  Q.      Q.      Q      H         +E   Q.
|-15------16------11---|-12--------(12)-11-------|
|-----------------13---|-14--------(14)----------|
|-(6)------------------|-(6)---------------------|
|-(6)------------------|-(6)---------------------|
|-(4)------------------|-(4)---------------------|
|----------------------|-------------------------|
  +W                     +W


  G#5                          F#5
   E  E E  E  E E  E  E     E   E   Q   E  E  E E
   |  | |  |  | |  |  |         |   |   |  |  | |
   /  / /  /  / /  /  /         /   /   /  /  / /

   E  E E  E  E E  E  E     E   E   E E E  E  E E
|-----------------------|-------------------------|
|-----------------------|-------9---9-9-9---------|
|--8--8-8--9--9-9--8--8-|---8--------------9--9-9-|
|-----------------------|-------------------------|
|-----------------------|-------------------------|
|-----------------------|-------------------------|
|
|  E  E E  E  E E  E  E     E   E   E E E  E  E E
|-----------------------|-------------------------|
|-----------------------|-------------------------|
|-----------------------|-------6---6-6-6--6--6-6-|
|--6--6-6--7--7-7--7--7-|-------------------------|
|-----------------------|-------------------------|
|-----------------------|-------------------------|
|
|  Q.      Q.      E  E    +E   H          Q.
|-----------------------|------16-----------------|
|-16------17------16-17-|-(17)------------17------|
|-----------------------|-------6-----------------|
|-13--------------------|-------4-----------------|
|-11--------------------|-------4-----------------|
|-13--------------------|-------------------------|
   W                        E   H..


  B5
   E  E E  E   E  E E E    E   E  E  E E E E E
   |  | |  |   |  | | |    |   |  |  | | | | |
   /  / /  /   /  / / /    /   /  /  / / / / /

   E  E E  E   E  E E E    E   E  E  E E E E E
|-----------------------|-----------------------|
|--7--7-7---------------|------7----------------|
|----------9---9--9-9-9-|--9------8--8-8-8-8-8--|
|-----------------------|-----------------------|
|-----------------------|-----------------------|
|-----------------------|-----------------------|
|
|  E  E E  E   E  E E E    E   E  E  E E E E E
|-----------------------|-----------------------|
|-----------------------|-----------------------|
|--6--6-6--6---6--6-6-6-|--6---4--4--4-4-4-4-4--|
|-----------------------|-----------------------|
|-----------------------|-----------------------|
|-----------------------|-----------------------|
|
|  Q.      E  +H           E   E  H.
|-14------12-(12)-------|-12--14-11-------------|
|-----------------------|--------12-------------|
|--4--------------------|-(4)-----8-------------|
|--4--------------------|-(4)-----9-------------|
|--2--------------------|-(2)-----6-------------|
|-----------------------|-----------------------|
   W                      +Q      H.


  C#5
   E  E E  E  E E  E  E     E   E E E E  E  E E
   |  | |  |  | |  |  |     |   | | | |  |  | |
   /  / /  /  / /  /  /     /   / / / /  /  / /

   E  E E  E  E E  E  E     E   E E E E  E  E E
|-----------------------|-----------------------|
|-----------------------|-------9-9-9-9---------|
|--8--8-8--9--9-9--8--9-|---9------------9--9-9-|
|-----------------------|-----------------------|
|-----------------------|-----------------------|
|-----------------------|-----------------------|
|
|  E  E E  E  E E  E  E     E   E E E E  E  E E
|-----------------------|-----------------------|
|-----------------------|-----------------------|
|-----------------------|-------6-6-6-6--6--6-6-|
|--6--6-6--6--6-6--6--6-|---6-------------------|
|-----------------------|-----------------------|
|-----------------------|-----------------------|
|
|  Q.      Q.      E  E    +E   H        Q.
|-----------------------|------16---------------|
|-16------17------16-17-|-(17)----------17------|
|--6--------------------|--(6)------------------|
|--6--------------------|--(6)------------------|
|--4--------------------|--(4)------------------|
|-----------------------|-----------------------|
   W                       +W


   E  E E  E  E E  E E    E  E E E   E   E  E E
   |  | |  |  | |  | |    |  | | |   |   |  | |
   /  / /  /  / /  / /    /  / / /   /   /  / /

   E  E E  E  E E  E E    E  E E E   E   E  E E
|----------------------|-------------------------|
|--8--8-8--9--9-9------|-------------------------|
|------------------8-8-|--9--9-9-9---9---8--8-8--|
|----------------------|-------------------------|
|----------------------|-------------------------|
|----------------------|-------------------------|
|
|  E  E E  E  E E  E E    E  E E E   E   E  E E
|----------------------|-------------------------|
|----------------------|-------------------------|
|--6--6-6--6--6-6--6-6-|--6--6-6-6---6---6--6-6--|
|----------------------|-------------------------|
|----------------------|-------------------------|
|----------------------|-------------------------|
|
|  Q.      Q.      Q      H         +E   Q.
|-15------16------11---|-12--------(12)-11-------|
|-----------------13---|-14--------(14)----------|
|-(6)------------------|-(6)---------------------|
|-(6)------------------|-(6)---------------------|
|-(4)------------------|-(4)---------------------|
|----------------------|-------------------------|
  +W                     +W


  G#5                          F#5
   E  E E  E  E E  E  E     E   E   Q   E  E  E E
   |  | |  |  | |  |  |         |   |   |  |  | |
   /  / /  /  / /  /  /         /   /   /  /  / /

   E  E E  E  E E  E  E     E   E   E E E  E  E E
|-----------------------|-------------------------|
|-----------------------|-------9---9-9-9---------|
|--8--8-8--9--9-9--8--8-|---8--------------9--9-9-|
|-----------------------|-------------------------|
|-----------------------|-------------------------|
|-----------------------|-------------------------|
|
|  E  E E  E  E E  E  E     E   E   E E E  E  E E
|-----------------------|-------------------------|
|-----------------------|-------------------------|
|-----------------------|-------6---6-6-6--6--6-6-|
|--6--6-6--7--7-7--7--7-|-------------------------|
|-----------------------|-------------------------|
|-----------------------|-------------------------|
|
|  Q.      Q.      E  E    +E   H          Q.
|-----------------------|------16-----------------|
|-16------17------16-17-|-(17)------------17------|
|-----------------------|-------6-----------------|
|-13--------------------|-------4-----------------|
|-11--------------------|-------4-----------------|
|-13--------------------|-------------------------|
   W                        E   H..


  B5                          D#5
   E  E E  E   E  E E E    E   E  E  E E E E E
   |  | |  |   |  | | |    |   |  |  | | | | |
   /  / /  /   /  / / /    /   /  /  / / / / /

   E  E E  E   E  E E E    E   E  E  E E E E E
|-----------------------|-----------------------||
|--7--7-7---------------|------7----------------||
|----------9---9--9-9-9-|--9------8--8-8-8-8-8--||
|-----------------------|-----------------------||
|-----------------------|-----------------------||
|-----------------------|-----------------------||
|
|  E  E E  E   E  E E E    E   E  E  E E E E E
|-----------------------|-----------------------||
|-----------------------|-----------------------||
|--6--6-6--6---6--6-6-6-|--6---4--4--4-4-4-4-6--||
|-----------------------|-----------------------||
|-----------------------|-----------------------||
|-----------------------|-----------------------||
|
|  Q.      E  +H           E   E  H.
|-14------12-(12)-------|-12--14-11-------------||
|-----------------------|--------12-------------||
|--4--------------------|-(4)-----8-------------||
|--4--------------------|-(4)-----9-------------||
|--2--------------------|-(2)-----6-------------||
|-----------------------|-----------------------||
   W                      +Q      H.


 Verse
  C#5
  >
  W                                       +W
|---------------------------------------|-----------------------------------------|
|---------------------------------------|-----------------------------------------|
|-6-------------------------------------|-(6)-------------------------------------|
|-6-------------------------------------|-(6)-------------------------------------|
|-4-------------------------------------|-(4)-------------------------------------|
|---------------------------------------|-----------------------------------------|
|
| E +E    +E  +E    +E  +E    +E  +E      +E  +E    +E  +E    +E  +E    +E  +E
|---------------------------------------|-----------------------------------------|
|---------------------------------------|-----------------------------------------|
|-8-(8)b9-(8)-(8)b9-(8)-(8)b9-(8)-(8)b9-|-(8)-(8)b9-(8)-(8)b9-(8)-(8)b9-(8)-(8)b9-|
|---------------------------------------|-----------------------------------------|
|---------------------------------------|-----------------------------------------|
|---------------------------------------|-----------------------------------------|
|
| Gtr V
| E  E     Q         E   E     E   E       Q         E   E     E   E     E   E
|---------------------------------------|-----------------------------------------|
|---10---------------9------------10----|------------9----------------------------|
|-9--------8-------------9--------------|--8-----------------------------8---9----|
|-----------------------------11--------|---------------11---------9--------------|
|---------------------------------------|---------------------12------------------|
|---------------------------------------|-----------------------------------------|


                                                             To Coda
  +W                                        +W
|-----------------------------------------|-----------------------------|
|-----------------------------------------|-----------------------------|
|-(6)-------------------------------------|-(6)-------------------------|
|-(6)-------------------------------------|-(6)-------------------------|
|-(4)-------------------------------------|-(4)-------------------------|
|-----------------------------------------|-----------------------------|
|
| +E  +E    +E  +E    +E  +E    +E  +E      +E  +E    E  E  E  E  E  E
|-----------------------------------------|-----------------------------|
|-----------------------------------------|-----------------------------|
|-(8)-(8)b9-(8)-(8)b9-(8)-(8)b9-(8)-(8)b9-|-(8)-(8)b9-8--9--9-11-11-13--|
|-----------------------------------------|-----------------------------|
|-----------------------------------------|-----------------------------|
|-----------------------------------------|-----------------------------|
|
|  E   E     Q         E   E     E   E       Q        E  E  E  E  E  E
|-----------------------------------------|-----------------------------|
|-----10---------------9------------10----|-----------9-----------------|
|--9---------8-------------9--------------|--8--------------------8--9--|
|-------------------------------11--------|-------------11-----9--------|
|-----------------------------------------|----------------12-----------|
|-----------------------------------------|-----------------------------|


  N.C.
  Gtr III
   E  E H.              +H         E E E E
|---------------------|--------------------|
|---------------------|--------------------|
|-13--8-8-------------|-(8)--------8-6-6-9-|
|---------------------|--------------------|
|---------------------|--------------------|
|---------------------|--------------------|
|
| Gtr V
|  E  E Q   E E  E  E    Q   E  E  E E E E
|---------------------|--------------------|
|----10-----9------10-|------9-------------|
|--9----8-----9-------|--8-------------8-9-|
|---------------11----|--------11----9-----|
|---------------------|-----------12-------|
|---------------------|--------------------|


  H       +E    E  E  E   H.            E E
|-----------------------|--------------------|
|-----------------------|--------------------|
|-9-------(9)-/11-11--8-|-8-------------8-6--|
|-----------------------|--------------------|
|-----------------------|--------------------|
|-----------------------|--------------------|
|
| E  E Q   E    E  E  E   Q   E  E  E E E E
|-----------------------|--------------------|
|---10-----9---------10-|-----9--------------|
|-9----8--------9-------|-8-------------8-9--|
|-----------------11----|-------11----9------|
|-----------------------|----------12--------|
|-----------------------|--------------------|


  $
  C#m
  Gtr VI
  E  E E E E E  E  E    E  E E  E  E E E E
|--------------------|---------------------|
|------5--------5----|-------5---------5---|
|--------6---------6-|----------6--------6-|
|----6-------6-------|-----6---------6-----|
|-4--------4---------|--4----------4-------|
|--------------------|---------------------|
|
| E  E Q   E E  E  E    Q    E  E  E E E E
|--------------------|---------------------|
|---10-----9------10-|-------9-------------|
|-9----8-----9-------|--8--------------8-9-|
|--------------11----|---------11----9-----|
|--------------------|------------12-------|
|--------------------|---------------------|
|
| Gtr III
| >
| W                    +W
|--------------------|---------------------|
|--------------------|---------------------|
|-6------------------|-(6)-----------------|
|--------------------|---------------------|
|--------------------|---------------------|
|--------------------|---------------------|


   E   E E E E E  E  E    E  E E  E  E E E E
|----------------------|----------------------|
|--------5--------5----|-------5---------5----|
|----------6---------6-|----------6--------6--|
|------6-------6-------|-----6---------6------|
|--4---------4---------|--4----------4--------|
|----------------------|----------------------|
|
|  E   E Q   E E  E  E    Q    E  E  E E E E
|----------------------|----------------------|
|-----10-----9------10-|-------9--------------|
|--9-----8-----9-------|--8--------------8-9--|
|----------------11----|---------11----9------|
|----------------------|------------12--------|
|----------------------|----------------------|
|
| +W                     +W
|----------------------|----------------------|
|----------------------|----------------------|
|-(6)------------------|-(6)------------------|
|----------------------|----------------------|
|----------------------|----------------------|
|----------------------|----------------------|


  E  E E E E E  E  E   E E E  E  E E E E
|--------------------|-------------------|
|------5--------5----|-----5---------5---|
|--------6---------6-|--------6--------6-|
|----6-------6-------|---6---------6-----|
|-4--------4---------|-4---------4-------|
|--------------------|-------------------|
|
| E  E Q   E E  E  E   Q   E  E  E E E E
|--------------------|-------------------|
|---10-----9------10-|-----9-------------|
|-9----8-----9-------|-8-------------8-9-|
|--------------11----|-------11----9-----|
|--------------------|----------12-------|
|--------------------|-------------------|


  E  E E E E E  E  E   E E E  E  E E E E
|--------------------|--------------------|
|------5--------5----|-----5---------5----|
|--------6---------6-|--------6--------6--|
|----6-------6-------|---6---------6------|
|-4--------4---------|-4---------4--------|
|--------------------|--------------------|
|
| E  E Q   E E  E  E   Q   E  E  E E E E
|--------------------|--------------------|
|---10-----9------10-|-----9--------------|
|-9----8-----9-------|-8-------------8-9--|
|--------------11----|-------11----9------|
|--------------------|----------12--------|
|--------------------|--------------------|


  E  E E E E E  E  E   E E E  E  E E E E
|--------------------|-------------------|
|------5--------5----|-----5---------5---|
|--------6---------6-|--------6--------6-|
|----6-------6-------|---6---------6-----|
|-4--------4---------|-4---------4-------|
|--------------------|-------------------|
|
| E  E Q   E E  E  E   Q   E  E  E E E E
|--------------------|-------------------|
|---10-----9------10-|-----9-------------|
|-9----8-----9-------|-8-------------8-9-|
|--------------11----|-------11----9-----|
|--------------------|----------12-------|
|--------------------|-------------------|


  C#sus4               C#m
  E  E E E E E  E  E   E E E  E  E E E E
|--------------------|-----4---------4----|
|------7--------7----|--------------------|
|--------6---------6-|--------6--------6--|
|----6-------6-------|---6---------6------|
|-4--------4---------|-4---------4--------|
|--------------------|--------------------|
|
| E  E Q   E E  E  E   Q   E  E  E E E E
|--------------------|--------------------|
|---10-----9------10-|-----9--------------|
|-9----8-----9-------|-8-------------8-9--|
|--------------11----|-------11----9------|
|--------------------|----------12--------|
|--------------------|--------------------|


  Amaj7/C#
  E  E E E E E  E  E   E E E  E  E E E E
|------5--------5----|-----5---------5---|
|--------------------|-------------------|
|--------6---------6-|--------6--------6-|
|----6-------6-------|---6---------6-----|
|-4--------4---------|-4---------4-------|
|--------------------|-------------------|
|
| E  E Q   E E  E  E   Q   E  E  E E E E
|--------------------|-------------------|
|---10-----9------10-|-----9-------------|
|-9----8-----9-------|-8-------------8-9-|
|--------------11----|-------11----9-----|
|--------------------|----------12-------|
|--------------------|-------------------|


                        C#m
  E  E E  E E E  E  E   E  E E  E  E E E E
|------5---------5----|------4---------4----||
|---------------------|---------------------||
|---------6---------6-|---------6--------6--||
|----6--------6-------|----6---------6------||
|-4---------4---------|-4----------4--------||
|---------------------|---------------------||
|
| E  E E  E E E  E  E   E  E E  E  E E E E
|---------------------|---------------------||
|---10------9------10-|------9--------------||
|-9----8------9-------|-8--------------8-9--||
|--------11-----11----|---11---11----9------||
|---------------------|-----------12--------||
|---------------------|---------------------||


 horus
  A5                  B/G#  G#N.C.    A5                  B/G#  G#N.C.
  Gtr I
   H    Q  E E     E  E Q   E E E E    H    Q  E E     E  E Q   E  E  E  E
|--------------|--------------------|--------------|------------------------|
|--------------|--------------------|--------------|------------------------|
|--------------|------8-8-----9-9s8-|--------------|------8-8-----13-13s11--|
|--7----7--7-7-|------9-9-----------|--7----7--7-7-|------9-9---------------|
|--7----7--7-7-|------6-6---6-7-7s6-|--7----7--7-7-|------6-6---6-11-11s=9--|
|--7----7--7-7-|------6-6---6-------|--7----7--7-7-|------6-6---6-----------|
|
| Gtr II
|  H    Q  E E     E  E Q   E E E E    H    Q  E E     E  E Q   E  E  E  E
|--------------|--------------------|--------------|------------------------|
|--------------|--------------------|--------------|------------------------|
|--------------|------8-8-----9-9s8-|--------------|------8-8------9--9s=8--|
|--7----7--7-7-|------9-9-----------|--7----7--7-7-|------9-9---------------|
|--7----7--7-7-|------6-6---6-7-7s6-|--7----7--7-7-|------6-6---6--7--7s=6--|
|--7----7--7-7-|------6-6---6-------|--7----7--7-7-|------6-6---6-----------|
|
| Gtr IV
|  W              +E  E H.             W              +E  E H.
|--9-----------|--(9)-7-7-----------|--9-----------|--(9)-7-7---------------|
|-10-----------|-(10)-9-9-----------|-10-----------|-(10)-9-9---------------|
|--------------|--------------------|--------------|------------------------|
|--7-----------|--(7)-9-9-----------|--7-----------|--(7)-9-9---------------|
|--7-----------|--(7)-6-6-----------|--7-----------|--(7)-6-6---------------|
|--7-----------|--(7)-6-6-----------|--7-----------|--(7)-6-6---------------|
   W              +E  E H.             W              +E  E H.


  C#5                         B5
   E  E  Q    Q    Q      +E   E  Q    E  E   E  E
|----------------------|---------------------------|
|----------------------|---------------------------|
|-11s13-13---13---13---|-(13)-11-11---11s16--16-16-|
|----------------------|---------------------------|
|--9s11-11---11---11---|-(11)--9--9----9s14--14-14-|
|----------------------|---------------------------|
|
|  E  E  E E  E E  E E    +E   E  Q    E  E   E  E
|----------------------|---------------------------|
|----------------------|---------------------------|
|--6--6--6-6--6-6--6-6-|--(6)--4--4----4--4---4--4-|
|--6--6--6-6--6-6--6-6-|--(6)--4--4----4--4---4--4-|
|--4--4--4-4--4-4--4-4-|--(4)--2--2----2--2---2--2-|
|----------------------|---------------------------|
|
|  W                      +E   E  Q.      Q.
|-12-------------------|-(12)-14-14------19--------|
|--5-------------------|--(5)--4--4-------9--------|
|--6-------------------|--(6)--4--4------(4)-------|
|--6-------------------|--(6)--4--4------(4)-------|
|--4-------------------|--(4)--2--2------(2)-------|
|----------------------|---------------------------|
   W                      +E   E  Q.     +Q.


       A5                            F#5
    E   E   E   E  E  E  E  E     E   E  Q     E   E    E   E
|-----------------------------|--------------------------------|
|-----------------------------|--------------------------------|
|--16s=14--14--14-14-14-14-14-|--14s=13-13----13s=11---11--11--|
|-----------------------------|--------------------------------|
|--14s=12--12--12-12-12-12-12-|--12s=11-11----11s==9----9---9--|
|-----------------------------|--------------------------------|
|
|   E   E   E   E  E  E  E  E     E   E  E  E  E   E    E   E
|-----------------------------|--------------------------------|
|-----------------------------|--------------------------------|
|---4---2---2---2--2--2--2--2-|---2----------------------------|
|---4---2---2---2--2--2--2--2-|---2---4--4--4--4---4----4---4--|
|---2---0---0---0--0--0--0--0-|---0---4--4--4--4---4----4---4--|
|-----------------------------|-------4--4--4--4---4----4---4--|
|
|  +E   E  +H.                   +E   E  Q.        E    Q
|-(19)-17-(17)----------------|-(17)-19-19--------21---21------|
|--(9)--7--(7)----------------|--(7)-21-21--------16---16------|
|--(4)--2--(2)----------------|--(2)---------------------------|
|--(4)--2--(2)----------------|--(2)-16-16-------(16)-(16)-----|
|--(2)--0--(0)----------------|--(0)-16-16-------(16)-(16)-----|
|-----------------------------|--------------------------------|
   +E   E  +H.                   +E   E  Q.       +E   +Q


       A5                         B5
    E    E    E  E E E E E     E   E  Q    E  E  E E
|--------------------------|-------------------------|
|--------------------------|-------------------------|
|--11s===9----9--9-9-9-9-9-|---9s=11-11---11-13-13-8-|
|--------------------------|-------------------------|
|---9s===7----7--7-7-7-7-7-|---7s==9--9----9-11-11-6-|
|--------------------------|-------------------------|
|
|   E    E    E  E E E E E    +E   E  Q    E  E  E E
|--------------------------|-------------------------|
|--------------------------|-------------------------|
|--------2----2--2-2-2-2-2-|--(2)--4--4----4--4--4-4-|
|---4----2----2--2-2-2-2-2-|--(2)--4--4----4--4--4-4-|
|---4----0----0--0-0-0-0-0-|--(0)--2--2----2--2--2-2-|
|---4----------------------|-------------------------|
|
|  +E    E   +H.              +E   E  H.
|-(21)-(21)-(21)-----------|-(21)-19-19--------------|
|-(16)--14--(14)-----------|-(14)-16-16--------------|
|--------------------------|-------------------------|
|-(16)--14--(14)-----------|-(14)-16-16--------------|
|-(16)--12--(12)-----------|-(12)-14-14--------------|
|--------------------------|-------------------------|
   +E    E   +H.              +E   E  H.


                                        D.C. al Coda
                                        D.C. al Coda
       A5                       B5
    E   E   E  E E E E E     E   E   E   E  E  E  E  E
|------------------------|------------------------------||
|------------------------|------------------------------||
|---8s==9---9--9-9-9-9-9-|---9s=16--16--16-16-16-16-16--||
|------------------------|------------------------------||
|---6s==7---7--7-7-7-7-7-|---7s=14--14--14-14-14-14-14--||
|------------------------|------------------------------||
|
|   E   E   E  E E E E E     E   E   E   E  E  E  E  E
|------------------------|------------------------------||
|------------------------|------------------------------||
|---4---2---2--2-2-2-2-2-|---2---4---4---4--4--4--4--4--||
|---4---2---2--2-2-2-2-2-|---2---4---4---4--4--4--4--4--||
|---2---0---0--0-0-0-0-0-|---0---2---2---2--2--2--2--2--||
|------------------------|------------------------------||
|
|  +E   E  +H.              +E   E  +H.
|-(19)-16-(16)-----------|-(16)-23-(23)-----------------||
|-(16)-14-(14)-----------|-(14)-16-(16)-----------------||
|------------------------|------------------------------||
|-(16)-14-(14)-----------|-(14)-21-(21)-----------------||
|-(14)-12-(12)-----------|-(12)-18-(18)-----------------||
|------------------------|------------------------------||
   +E   E  +H.              +E   E  +H.


  &
  N.C.
  Gtr III
   E  E H.              +H         E E E E
|---------------------|--------------------|
|---------------------|--------------------|
|-13--8-8-------------|-(8)--------8-6-6-9-|
|---------------------|--------------------|
|---------------------|--------------------|
|---------------------|--------------------|
|
| Gtr V
|  E  E Q   E E  E  E    Q   E  E  E E E E
|---------------------|--------------------|
|----10-----9------10-|------9-------------|
|--9----8-----9-------|--8-------------8-9-|
|---------------11----|--------11----9-----|
|---------------------|-----------12-------|
|---------------------|--------------------|


                            D.S. al Dbl. Coda
  H       +E    E  Q       +E  E H         E E
|-----------------------|-----------------------||
|-----------------------|-----------------------||
|-9-------(9)-/11-11----|-(11)-8-8---------8-6--||
|-----------------------|-----------------------||
|-----------------------|-----------------------||
|-----------------------|-----------------------||
|
| E  E Q   E    E  E  E     Q    E  E  E E E E
|-----------------------|-----------------------||
|---10-----9---------10-|--------9--------------||
|-9----8--------9-------|---8--------------8-9--||
|-----------------11----|----------11----9------||
|-----------------------|-------------12--------||
|-----------------------|-----------------------||


   Breakdown
    &&
    EbGbEb5       Eb  EbD5                N.C.
    Gtr II
        PM------|         PM------------|
    E E e e e e e E   E E e e e e e e   e E E E     E      E   E    E
||------------------|-----------------|------------------------------------||
||o-----------------|-----------------|-----------------------------------o||
||------------------|-----------------|------------------------------------||
||--5-4-----------5-|-5-0-------------|------------------------------------||
||o-1-1-1-1-1-1-1-1-|-1-0-0-0-0-0-0-0-|-0---------------------------------o||
||--1-1-1-1-1-1-1-1-|-1-0-0-0-0-0-0-0-|-0-7-7-7-----7------7---7----7------||
|
|   Gtr I
|       PM------|         PM------------|
|   E E e e e e e E   E E e e e e e e   e E E E     E      E   E    E
||------------------|-----------------|------------------------------------||
||o-----------------|-----------------|-----------------------------------o||
||------------------|-----------------|---2-2-2b2.5-2pb2.5-2b3-2pb3-2b3.5--||
||--5-4-4-4-4-4-4-5-|-5-0-------------|------------------------------------||
||o-1-1-1-1-1-1-1-1-|-1-0-0-0-0-0-0-0-|-0---------------------------------o||
||--1-1-1-1-1-1-1-1-|-1-0-0-0-0-0-0-0-|-0----------------------------------||


  EbGb/Eb       Eb    D5                N.C.
  E E E E E E E E   E E E E E E E E   E E E E     E      E   E    E
|-----------------|-----------------|-----------------------------------|
|-----------------|-----------------|-----------------------------------|
|-----------------|-----------------|-----------------------------------|
|-5-4-4-4-4-4-4-5-|-5-0-0-0-0-0-0-0-|-0---------------------------------|
|-1-1-1-1-1-1-1-1-|-1-0-0-0-0-0-0-0-|-0---------------------------------|
|-1-1-1-1-1-1-1-1-|-1-0-0-0-0-0-0-0-|-0-7-7-7-----7------7---7----7-----|
|
| E E E E E E E E   E E E E E E E E   E E E E     E      E   E    E
|-----------------|-----------------|-----------------------------------|
|-----------------|-----------------|-----------------------------------|
|-----------------|-----------------|---2-2-2b2.5-2pb2.5-2b3-2pb3-2b3.5-|
|-5-4-4-4-4-4-4-5-|-5-4-0-0-0-0-0-0-|-0---------------------------------|
|-1-1-1-1-1-1-1-1-|-1-0-0-0-0-0-0-0-|-0---------------------------------|
|-1-1-1-1-1-1-1-1-|-1-0-0-0-0-0-0-0-|-0---------------------------------|


  EbGbEb5       Eb    D5                N.C.
      PM------|         PM------------|
  E E e e e e e E   E E e e e e e e   e E E E     E      E   E    E
|-----------------|-----------------|-----------------------------------||
|-----------------|-----------------|-----------------------------------||
|-----------------|-----------------|---7-7-7b7.5-7pb7.5-7b8-7pb8-7b8.5-||
|-5-4-----------5-|-5-0-------------|-----------------------------------||
|-1-1-1-1-1-1-1-1-|-1-0-0-0-0-0-0-0-|-0---------------------------------||
|-1-1-1-1-1-1-1-1-|-1-0-0-0-0-0-0-0-|-0---------------------------------||
|
|     PM------|         PM------------|
| E E e e e e e E   E E e e e e e e   e E E E     E      E   E    E
|-----------------|-----------------|-----------------------------------||
|-----------------|-----------------|-----------------------------------||
|-----------------|-----------------|---2-2-2b2.5-2pb2.5-2b3-2pb3-2b3.5-||
|-5-4-4-4-4-4-4-5-|-5-0-------------|-----------------------------------||
|-1-1-1-1-1-1-1-1-|-1-0-0-0-0-0-0-0-|-0---------------------------------||
|-1-1-1-1-1-1-1-1-|-1-0-0-0-0-0-0-0-|-0---------------------------------||


  C#m
  >
  ~~~~~~~~~~~~~~~~~~~~~~~~~~~~~~
  W                         +W
|-------------------------|---------------------|
|-------------------------|---------------------|
|-7pb7.5------------------|-(7)-----------------|
|-------------------------|---------------------|
|-------------------------|---------------------|
|-------------------------|---------------------|
|
| Gtr VI
| E       E E E E E  E  E    E  E E  E  E E E E
|-------------------------|---------------------|
|-----------5--------5----|-------5---------5---|
|-------------6---------6-|----------6--------6-|
|---------6-------6-------|-----6---------6-----|
|-4-------------4---------|--4----------4-------|
|-------------------------|---------------------|
|
| Gtr V
| E       E Q   E E  E  E    Q    E  E  E E E E
|-------------------------|---------------------|
|--------10-----9------10-|-------9-------------|
|-9---------8-----9-------|--8--------------8-9-|
|-------------------11----|---------11----9-----|
|-------------------------|------------12-------|
|-------------------------|---------------------|


  W                    W
|--------------------|--------------------||
|--------------------|--------------------||
|--------------------|--------------------||
|--------------------|--------------------||
|--------------------|--------------------||
|--------------------|--------------------||
|
| E  E E E E E  E  E   E E E  E  E E E E
|--------------------|--------------------||
|------5--------5----|-----5---------5----||
|--------6---------6-|--------6--------6--||
|----6-------6-------|---6---------6------||
|-4--------4---------|-4---------4--------||
|--------------------|--------------------||
|
| E  E Q   E E  E  E   Q   E  E  E E E E
|--------------------|--------------------||
|---10-----9------10-|-----9--------------||
|-9----8-----9-------|-8-------------8-9--||
|--------------11----|-------11----9------||
|--------------------|----------12--------||
|--------------------|--------------------||


    EbGb/Eb       Eb    D5                N.C.
    E E E E E E E E   E E E E E E E E   E E E E     E      E   E    E      3x
||------------------|-----------------|------------------------------------||
||o-----------------|-----------------|-----------------------------------o||
||------------------|-----------------|------------------------------------||
||--5-4-4-4-4-4-4-5-|-5-0-0-0-0-0-0-0-|-0----------------------------------||
||o-1-1-1-1-1-1-1-1-|-1-0-0-0-0-0-0-0-|-0---------------------------------o||
||--1-1-1-1-1-1-1-1-|-1-0-0-0-0-0-0-0-|-0-7-7-7-----7------7---7----7------||
|
|   Gtr I
|   E E E E E E E E   E E E E E E E E   E E E E     E      E   E    E      3x
||------------------|-----------------|------------------------------------||
||o-----------------|-----------------|-----------------------------------o||
||------------------|-----------------|---2-2-2b2.5-2pb2.5-2b3-2pb3-2b3.5--||
||--5-4-4-4-4-4-4-5-|-5-4-4-4-4-4-4-4-|-4----------------------------------||
||o-1-1-1-1-1-1-1-1-|-1-0-0-0-0-0-0-0-|-0---------------------------------o||
||--1-1-1-1-1-1-1-1-|-1-0-0-0-0-0-0-0-|-0----------------------------------||


  EbGb/Eb       Eb    D5                N.C.
  E E E E E E E E   E E E E E E E E   E E E E     E      E   E    E
|-----------------|-----------------|-----------------------------------||
|-----------------|-----------------|-----------------------------------||
|-----------------|-----------------|---7-7-7b7.5-7pb7.5-7b8-7pb8-7b8.5-||
|-5-4-4-4-4-4-4-5-|-5-0-0-0-0-0-0-0-|-0---------------------------------||
|-1-1-1-1-1-1-1-1-|-1-0-0-0-0-0-0-0-|-0---------------------------------||
|-1-1-1-1-1-1-1-1-|-1-0-0-0-0-0-0-0-|-0---------------------------------||
|
| E E E E E E E E   E E E E E E E E   E E E E     E      E   E    E
|-----------------|-----------------|-----------------------------------||
|-----------------|-----------------|-----------------------------------||
|-----------------|-----------------|---2-2-2b2.5-2pb2.5-2b3-2pb3-2b3.5-||
|-5-4-4-4-4-4-4-5-|-5-4-4-4-4-4-4-4-|-4---------------------------------||
|-1-1-1-1-1-1-1-1-|-1-0-0-0-0-0-0-0-|-0---------------------------------||
|-1-1-1-1-1-1-1-1-|-1-0-0-0-0-0-0-0-|-0---------------------------------||


 Interlude
  E5
  E E E E E E E E    E  E  E  E  E  E  E  E
|-----------------|-------------------------|
|-----------------|-------------------------|
|-9-9-9-9-9-9-9-9-|-16-16-16-16-16-16-16-16-|
|-----------------|-------------------------|
|-7-7-7-7-7-7-7-7-|-14-14-14-14-14-14-14-14-|
|-----------------|-------------------------|
|
| E E E E E E E E    E  E  E  E  E  E  E  E
|-----------------|-------------------------|
|-----------------|-------------------------|
|-----------------|-------------------------|
|-2-2-2-2-2-2-2-2-|--2--2--2--2--2--2--2--2-|
|-2-2-2-2-2-2-2-2-|--2--2--2--2--2--2--2--2-|
|-2-2-2-2-2-2-2-2-|--2--2--2--2--2--2--2--2-|


  F#5
   E  E  E  E  E  E  E  E    E  E  E  E  E  E  E  E
|-------------------------|-------------------------|
|-------------------------|-------------------------|
|-16-16-16-16-16-16-16-16-|-11-11-11-11-11-11-11-11-|
|-------------------------|-------------------------|
|-14-14-14-14-14-14-14-14-|--9--9--9--9--9--9--9--9-|
|-------------------------|-------------------------|
|
|  E  E  E  E  E  E  E  E    E  E  E  E  E  E  E  E
|-------------------------|-------------------------|
|-------------------------|-------------------------|
|-------------------------|-------------------------|
|--4--4--4--4--4--4--4--4-|--4--4--4--4--4--4--4--4-|
|--4--4--4--4--4--4--4--4-|--4--4--4--4--4--4--4--4-|
|--4--4--4--4--4--4--4--4-|--4--4--4--4--4--4--4--4-|


  C5
  E E E E E E E E    E  E  E  E  E  E  E  E
|-----------------|-------------------------|
|-----------------|-------------------------|
|-5-5-5-5-5-5-5-5-|-12-12-12-12-11-11-11-11-|
|-----------------|-------------------------|
|-3-3-3-3-3-3-3-3-|-10-10-10-10--9--9--9--9-|
|-----------------|-------------------------|
|
| E E E E E E E E    E  E  E  E  E  E  E  E
|-----------------|-------------------------|
|-----------------|-------------------------|
|-5-5-5-5-5-5-5-5-|--5--5--5--5--5--5--5--5-|
|-5-5-5-5-5-5-5-5-|--5--5--5--5--5--5--5--5-|
|-3-3-3-3-3-3-3-3-|--3--3--3--3--3--3--3--3-|
|-----------------|-------------------------|


  E5
   E  E  E  E  E  E  E  E   E E E E E E E E
|-------------------------|-----------------|
|-------------------------|-----------------|
|-11-11-11-11-11-11-12-12-|-9-9-9-9-9-9-9-9-|
|-------------------------|-----------------|
|--9--9--9--9--9--9-10-10-|-7-7-7-7-7-7-7-7-|
|-------------------------|-----------------|
|
|  E  E  E  E  E  E  E  E   E E E E E E E E
|-------------------------|-----------------|
|-------------------------|-----------------|
|-------------------------|-----------------|
|--2--2--2--2--2--2--2--2-|-2-2-2-2-2-2-2-2-|
|--2--2--2--2--2--2--2--2-|-2-2-2-2-2-2-2-2-|
|--2--2--2--2--2--2--2--2-|-2-2-2-2-2-2-2-2-|


  E5
  E E E E E E E E    E  E  E  E  E  E  E  E
|-----------------|-------------------------|
|-----------------|-------------------------|
|-9-9-9-9-9-9-9-9-|-16-16-16-16-21-21-21-21-|
|-----------------|-------------------------|
|-7-7-7-7-7-7-7-7-|-14-14-14-14-19-19-19-19-|
|-----------------|-------------------------|
|
| E E E E E E E E    E  E  E  E  E  E  E  E
|-----------------|-------------------------|
|-----------------|-------------------------|
|-----------------|-------------------------|
|-2-2-2-2-2-2-2-2-|--2--2--2--2--2--2--2--2-|
|-2-2-2-2-2-2-2-2-|--2--2--2--2--2--2--2--2-|
|-2-2-2-2-2-2-2-2-|--2--2--2--2--2--2--2--2-|


  F#5
   E  E  E  E  E  E  E  E    E  E  E  E  E  E  E  E
|-------------------------|-------------------------|
|-------------------------|-------------------------|
|-21-21-21-21-21-21-21-21-|-19-19-19-19-19-19-19-19-|
|-------------------------|-------------------------|
|-19-19-19-19-19-19-19-19-|-17-17-17-17-17-17-17-17-|
|-------------------------|-------------------------|
|
|  E  E  E  E  E  E  E  E    E  E  E  E  E  E  E  E
|-------------------------|-------------------------|
|-------------------------|-------------------------|
|-------------------------|-------------------------|
|--4--4--4--4--4--4--4--4-|--4--4--4--4--4--4--4--4-|
|--4--4--4--4--4--4--4--4-|--4--4--4--4--4--4--4--4-|
|--4--4--4--4--4--4--4--4-|--4--4--4--4--4--4--4--4-|


  C5                                    B5
   E  E  E  E  E  E  E  E    E  E  E  E  E  E  E  E
|-------------------------|-------------------------|
|-------------------------|-------------------------|
|-17-17-17-17-17-17-17-17-|-17-17-17-17-16-16-16-16-|
|-------------------------|-------------------------|
|-15-15-15-15-15-15-15-15-|-15-15-15-15-14-14-14-14-|
|-------------------------|-------------------------|
|
|  E  E  E  E  E  E  E  E    E  E  E  E  E  E  E  E
|-------------------------|-------------------------|
|-------------------------|-------------------------|
|--5--5--5--5--5--5--5--5-|--5--5--5--5--4--4--4--4-|
|--5--5--5--5--5--5--5--5-|--5--5--5--5--4--4--4--4-|
|--3--3--3--3--3--3--3--3-|--3--3--3--3--2--2--2--2-|
|-------------------------|-------------------------|


  A5                        E5
   E  E  E  E  E  E  E  E    E  E  E  E  E  E  E  E
|-------------------------|-------------------------|
|-------------------------|-------------------------|
|-14-14-14-14-14-14-14-14-|-12-12-12-12-12-12-12-12-|
|-------------------------|-------------------------|
|-12-12-12-12-12-12-12-12-|-10-10-10-10-10-10-10-10-|
|-------------------------|-------------------------|
|
|  E  E  E  E  E  E  E  E    E  E  E  E  E  E  E  E
|-------------------------|-------------------------|
|-------------------------|-------------------------|
|--2--2--2--2--2--2--2--2-|-------------------------|
|--2--2--2--2--2--2--2--2-|--2--2--2--2--2--2--2--2-|
|--0--0--0--0--0--0--0--0-|--2--2--2--2--2--2--2--2-|
|-------------------------|--2--2--2--2--2--2--2--2-|


  N.C.
   W
|----------------------------------------------------|
|----------------------------------------------------|
|--9-------------------------------------------------|
|----------------------------------------------------|
|--7-------------------------------------------------|
|----------------------------------------------------|
|
|  E      +E  +E       +E  +E       +E  +E       +E
|----------------------------------------------------|
|----------------------------------------------------|
|--9pb9.5-(9)-(9)pb9.5-(9)-(9)pb9.5-(9)-(9)pb9.5-(9)-|
|----------------------------------------------------|
|----------------------------------------------------|
|----------------------------------------------------|
|
| Gtr IV
|  W
|-19-------------------------------------------------|
|----------------------------------------------------|
|----------------------------------------------------|
|-17-------------------------------------------------|
|-19-------------------------------------------------|
|----------------------------------------------------|


    W             W            H     H
|-------------|-------------|-------------|
|-------------|-------------|-------------|
|--16---------|--16---------|-11----12----|
|-------------|-------------|-------------|
|--14---------|--14---------|--9----10----|
|-------------|-------------|-------------|
|
|   W             W            H     H
|-------------|-------------|-------------|
|-------------|-------------|-------------|
|---9---------|--11---------|-11----12----|
|-------------|-------------|-------------|
|---7---------|---9---------|--9----10----|
|-------------|-------------|-------------|
|
|  +W             W            W
|-(19)--------|-(19)--------|-15----------|
|-------------|-------------|-------------|
|-------------|-------------|-------------|
|-(17)--------|--16---------|-12----------|
|-(19)--------|--17---------|-14----------|
|-------------|-------------|-------------|


                ~~~~~~~~~~~~~~~~~~~~~~~~~~~~~~~~~
   W            H     H       H.       Q      W
|-----------|--------------|--------------|---------------|
|-----------|--------------|--------------|---------------|
|--5--------|-/12----11----|-11-------12--|---9-----------|
|-----------|--------------|--------------|---------------|
|--3--------|--------------|--------------|---------------|
|-----------|--------------|--------------|---------------|
|
|  W            H     H       H.       Q      H      H
|-----------|--------------|--------------|---------------|
|-----------|--------------|--------------|---------------|
|-12--------|--12-----9----|--9--------9--|-/12-----14----|
|-----------|--------------|--------------|---------------|
|-10--------|--10-----7----|--7--------7--|-/10-----12----|
|-----------|--------------|--------------|---------------|
|
|  W            H     H       W              +W
|-12--------|--19----17----|-15-----------|-(15)----------|
|-13--------|--20----19----|-17-----------|-(17)----------|
|-12--------|--19----17----|-16-----------|-(16)----------|
|-----------|--------------|--------------|---------------|
|-----------|--------------|--------------|---------------|
|-----------|--------------|--------------|---------------|


   W            H      H       W           W
|-----------|---------------|-----------|-------------|
|-----------|---------------|-----------|-------------|
|--9--------|--16-----21----|-21--------|-19----------|
|-----------|---------------|-----------|-------------|
|--7--------|--14-----19----|-19--------|-17----------|
|-----------|---------------|-----------|-------------|
|
|  W            H      H       W           H     H
|-----------|---------------|-----------|-------------|
|-----------|---------------|-----------|-------------|
|-12--------|--12-----14----|-11--------|-11----12----|
|-----------|---------------|-----------|-------------|
|-10--------|--10-----12----|--9--------|--9----10----|
|-----------|---------------|-----------|-------------|
|
|  W            H      H       W           W
|-----------|--19-----24----|-24--------|-22----------|
|-17--------|--20-----22----|-----------|-------------|
|-----------|--16-----21----|-21--------|-19----------|
|-17--------|-(17)----19----|-19--------|-21----------|
|-19--------|-(19)----------|-----------|-------------|
|-----------|---------------|-----------|-------------|


   W           +H      H       W           W
|-----------|---------------|-----------|-------||
|-----------|---------------|-----------|-------||
|-17--------|-(17)----16----|-14--------|-12----||
|-----------|---------------|-----------|-------||
|-15--------|-(15)----14----|-12--------|-10----||
|-----------|---------------|-----------|-------||
|
|  W           +H      H       W           W
|-----------|---------------|-----------|-------||
|-----------|---------------|-----------|-------||
|--9--------|--(9)----11----|-12--------|-12----||
|-----------|---------------|-----------|-------||
|--7--------|--(7)-----9----|-10--------|-10----||
|-----------|---------------|-----------|-------||
|
|  W           +H      H       W           W
|-20--------|-(20)----19----|-17--------|-15----||
|-----------|---------------|-----------|-------||
|-17--------|-(17)----16----|-14--------|-12----||
|-19--------|-(19)----16----|-17--------|-14----||
|-----------|---------------|-----------|-------||
|-----------|---------------|-----------|-------||


  N.C.
  >
  W                     +W
|---------------------|----------------------|
|---------------------|----------------------|
|-6-------------------|-(6)------------------|
|---------------------|----------------------|
|-4-------------------|-(4)------------------|
|---------------------|----------------------|
|
| >
| ~~~~~~~~~~~~~~~~~~~~~~~~~~
| W                     +W
|---------------------|----------------------|
|---------------------|----------------------|
|-9-------------------|-(9)------------------|
|---------------------|----------------------|
|---------------------|----------------------|
|---------------------|----------------------|
|
| Gtr V
| E  E E  E E E  E  E    E   E E  E  E E E E
|---------------------|----------------------|
|---10------9------10-|--------9-------------|
|-9----8------9-------|--8---------------8-9-|
|--------11-----11----|-----11---11----9-----|
|---------------------|-------------12-------|
|---------------------|----------------------|


  W                     W
|---------------------|---------------------||
|---------------------|---------------------||
|---------------------|---------------------||
|---------------------|---------------------||
|---------------------|---------------------||
|---------------------|---------------------||
|
| W                     W
|---------------------|---------------------||
|---------------------|---------------------||
|---------------------|---------------------||
|---------------------|---------------------||
|---------------------|---------------------||
|---------------------|---------------------||
|
| E  E E  E E E  E  E   E  E E  E  E E E E
|---------------------|---------------------||
|---10------9------10-|------9--------------||
|-9----8------9-------|-8--------------8-9--||
|--------11-----11----|---11---11----9------||
|---------------------|-----------12--------||
|---------------------|---------------------||


 Chorus
  A5                  B/G#  G#N.C.    A5                  B/G#  G#N.C.
  Gtr II
   H    Q  E E     E  E Q   E E E E    H    Q  E E     E  E Q   E  E  E  E
|--------------|--------------------|--------------|------------------------|
|--------------|--------------------|--------------|------------------------|
|--------------|------8-8-----9-9s8-|--------------|------8-8-----13-13s11--|
|--7----7--7-7-|------9-9-----------|--7----7--7-7-|------9-9---------------|
|--7----7--7-7-|------6-6---6-7-7s6-|--7----7--7-7-|------6-6---6-11-11s=9--|
|--7----7--7-7-|------6-6---6-------|--7----7--7-7-|------6-6---6-----------|
|
| Gtr I
|  H    Q  E E     E  E Q   E E E E    H    Q  E E     E  E Q   E  E  E  E
|--------------|--------------------|--------------|------------------------|
|--------------|--------------------|--------------|------------------------|
|--------------|------8-8-----9-9s8-|--------------|------8-8------9--9s=8--|
|--7----7--7-7-|------9-9-----------|--7----7--7-7-|------9-9---------------|
|--7----7--7-7-|------6-6---6-7-7s6-|--7----7--7-7-|------6-6---6--7--7s=6--|
|--7----7--7-7-|------6-6---6-------|--7----7--7-7-|------6-6---6-----------|
|
| Gtr IV
|  W              +E  E H.             W              +E  E H.
|--9-----------|--(9)-7-7-----------|--9-----------|--(9)-7-7---------------|
|-10-----------|-(10)-9-9-----------|-10-----------|-(10)-9-9---------------|
|--------------|--------------------|--------------|------------------------|
|--7-----------|--(7)-9-9-----------|--7-----------|--(7)-9-9---------------|
|--7-----------|--(7)-6-6-----------|--7-----------|--(7)-6-6---------------|
|--7-----------|--(7)-6-6-----------|--7-----------|--(7)-6-6---------------|
   W              +E  E H.             W              +E  E H.


  C#5                         B5
   E  E  Q    Q    Q      +E   E  Q    E  E   E  E
|----------------------|---------------------------|
|----------------------|---------------------------|
|-11s13-13---13---13---|-(13)-11-11---11s16--16-16-|
|----------------------|---------------------------|
|--9s11-11---11---11---|-(11)--9--9----9s14--14-14-|
|----------------------|---------------------------|
|
|  E  E  E E  E E  E E    +E   E  Q    E  E   E  E
|----------------------|---------------------------|
|----------------------|---------------------------|
|--6--6--6-6--6-6--6-6-|--(6)--4--4----4--4---4--4-|
|--6--6--6-6--6-6--6-6-|--(6)--4--4----4--4---4--4-|
|--4--4--4-4--4-4--4-4-|--(4)--2--2----2--2---2--2-|
|----------------------|---------------------------|
|
|  W                      +E   E  Q.      Q.
|-12-------------------|-(12)-14-14------19--------|
|--5-------------------|--(5)--4--4-------9--------|
|--6-------------------|--(6)--4--4------(4)-------|
|--6-------------------|--(6)--4--4------(4)-------|
|--4-------------------|--(4)--2--2------(2)-------|
|----------------------|---------------------------|
   W                      +E   E  Q.     +Q.


       A5                            F#5
    E   E   E   E  E  E  E  E     E   E  Q     E   E    E   E
|-----------------------------|--------------------------------|
|-----------------------------|--------------------------------|
|--16s=14--14--14-14-14-14-14-|--14s=13-13----13s=11---11--11--|
|-----------------------------|--------------------------------|
|--14s=12--12--12-12-12-12-12-|--12s=11-11----11s==9----9---9--|
|-----------------------------|--------------------------------|
|
|   E   E   E   E  E  E  E  E     E   E  E  E  E   E    E   E
|-----------------------------|--------------------------------|
|-----------------------------|--------------------------------|
|---4---2---2---2--2--2--2--2-|---2----------------------------|
|---4---2---2---2--2--2--2--2-|---2---4--4--4--4---4----4---4--|
|---2---0---0---0--0--0--0--0-|---0---4--4--4--4---4----4---4--|
|-----------------------------|-------4--4--4--4---4----4---4--|
|
|  +E   E  +H.                   +E   E  Q.        E    Q
|-(19)-17-(17)----------------|-(17)-19-19--------21---21------|
|--(9)--7--(7)----------------|--(7)-21-21--------16---16------|
|--(4)--2--(2)----------------|--(2)---------------------------|
|--(4)--2--(2)----------------|--(2)-16-16-------(16)-(16)-----|
|--(2)--0--(0)----------------|--(0)-16-16-------(16)-(16)-----|
|-----------------------------|--------------------------------|
   +E   E  +H.                   +E   E  Q.       +E   +Q


     A5                         B5
   E   E    E  E E E E E     E   E  Q    E  E  E E
|------------------------|-------------------------|
|------------------------|-------------------------|
|-11s==9----9--9-9-9-9-9-|---9s=11-11---11-13-13-8-|
|------------------------|-------------------------|
|--9s==7----7--7-7-7-7-7-|---7s==9--9----9-11-11-6-|
|------------------------|-------------------------|
|
|  E   E    E  E E E E E    +E   E  Q    E  E  E E
|------------------------|-------------------------|
|------------------------|-------------------------|
|------2----2--2-2-2-2-2-|--(2)--4--4----4--4--4-4-|
|--4---2----2--2-2-2-2-2-|--(2)--4--4----4--4--4-4-|
|--4---0----0--0-0-0-0-0-|--(0)--2--2----2--2--2-2-|
|--4---------------------|-------------------------|
|
|  E   E   +H.              +E   E  H.
|-21-(21)-(21)-----------|-(21)-19-19--------------|
|-16--14--(14)-----------|-(14)-16-16--------------|
|------------------------|-------------------------|
|-16--14--(14)-----------|-(14)-16-16--------------|
|-16--12--(12)-----------|-(12)-14-14--------------|
|------------------------|-------------------------|
   E   E   +H.              +E   E  H.


       A5                       B5
    E   E   E  E E E E E     E   E   E   E  E  E  E  E
|------------------------|------------------------------||
|------------------------|------------------------------||
|---8s==9---9--9-9-9-9-9-|---9s=16--16--16-16-16-16-16--||
|------------------------|------------------------------||
|---6s==7---7--7-7-7-7-7-|---7s=14--14--14-14-14-14-14--||
|------------------------|------------------------------||
|
|   E   E   E  E E E E E     E   E   E   E  E  E  E  E
|------------------------|------------------------------||
|------------------------|------------------------------||
|---4---2---2--2-2-2-2-2-|---2---4---4---4--4--4--4--4--||
|---4---2---2--2-2-2-2-2-|---2---4---4---4--4--4--4--4--||
|---2---0---0--0-0-0-0-0-|---0---2---2---2--2--2--2--2--||
|------------------------|------------------------------||
|
|  +E   E  +H.              +E   E  +H.
|-(19)-16-(16)-----------|-(16)-23-(23)-----------------||
|-(16)-14-(14)-----------|-(14)-16-(16)-----------------||
|------------------------|------------------------------||
|-(16)-14-(14)-----------|-(14)-21-(21)-----------------||
|-(14)-12-(12)-----------|-(12)-18-(18)-----------------||
|------------------------|------------------------------||
   +E   E  +H.              +E   E  +H.


   Outro
    C#5
    Gtr III
     E  E E  E  E E  E  E     E   E E E E  E  E E
     |  | |  |  | |  |  |     |   | | | |  |  | |
     /  / /  /  / /  /  /     /   / / / /  /  / /

     E  E E  E  E E  E  E     E   E E E E  E  E E
||------------------------|-----------------------|
||o-----------------------|-------9-9-9-9---------|
||---8--8-8--9--9-9--8--9-|---9------------9--9-9-|
||------------------------|-----------------------|
||o-----------------------|-----------------------|
||------------------------|-----------------------|
|
|    E  E E  E  E E  E  E     E   E E E E  E  E E
||------------------------|-----------------------|
||o-----------------------|-----------------------|
||------------------------|-------6-6-6-6--6--6-6-|
||---6--6-6--6--6-6--6--6-|---6-------------------|
||o-----------------------|-----------------------|
||------------------------|-----------------------|
|
|    Q.      Q.      E  E    +E   H        Q.
||------------------------|------16---------------|
||o-16------17------16-17-|-(17)----------17------|
||---6--------------------|--(6)------------------|
||---6--------------------|--(6)------------------|
||o--4--------------------|--(4)------------------|
||------------------------|-----------------------|
     W                       +W


   E  E E  E  E E  E E    E  E E E   E   E  E E
   |  | |  |  | |  | |    |  | | |   |   |  | |
   /  / /  /  / /  / /    /  / / /   /   /  / /

   E  E E  E  E E  E E    E  E E E   E   E  E E
|----------------------|------------------------|
|--8--8-8--9--9-9------|------------------------|
|------------------8-8-|--9--9-9-9---9---8--8-8-|
|----------------------|------------------------|
|----------------------|------------------------|
|----------------------|------------------------|
|
|  E  E E  E  E E  E E    E  E E E   E   E  E E
|----------------------|------------------------|
|----------------------|------------------------|
|--6--6-6--6--6-6--6-6-|--6--6-6-6---6---6--6-6-|
|----------------------|------------------------|
|----------------------|------------------------|
|----------------------|------------------------|
|
|  Q.      Q.      Q      H         +E   Q.
|-15------16------11---|-12--------(12)-11------|
|-----------------13---|-14--------(14)---------|
|-(6)------------------|-(6)--------------------|
|-(6)------------------|-(6)--------------------|
|-(4)------------------|-(4)--------------------|
|----------------------|------------------------|
  +W                     +W


  G#5                          F#5
   E  E E  E  E E  E  E     E   E   Q   E  E  E E
   |  | |  |  | |  |  |         |   |   |  |  | |
   /  / /  /  / /  /  /         /   /   /  /  / /

   E  E E  E  E E  E  E     E   E   E E E  E  E E
|-----------------------|-------------------------|
|-----------------------|-------9---9-9-9---------|
|--8--8-8--9--9-9--8--8-|---8--------------9--9-9-|
|-----------------------|-------------------------|
|-----------------------|-------------------------|
|-----------------------|-------------------------|
|
|  E  E E  E  E E  E  E     E   E   E E E  E  E E
|-----------------------|-------------------------|
|-----------------------|-------------------------|
|-----------------------|-------6---6-6-6--6--6-6-|
|--6--6-6--7--7-7--7--7-|-------------------------|
|-----------------------|-------------------------|
|-----------------------|-------------------------|
|
|  Q.      Q.      E  E    +E   H          Q.
|-----------------------|------16-----------------|
|-16------17------16-17-|-(17)------------17------|
|-----------------------|-------6-----------------|
|-13--------------------|-------4-----------------|
|-11--------------------|-------4-----------------|
|-13--------------------|-------------------------|
   W                        E   H..


  B5
   E  E E  E   E  E E E    E   E  E  E E E E E
   |  | |  |   |  | | |    |   |  |  | | | | |
   /  / /  /   /  / / /    /   /  /  / / / / /

   E  E E  E   E  E E E    E   E  E  E E E E E
|-----------------------|-----------------------|
|--7--7-7---------------|------7----------------|
|----------9---9--9-9-9-|--9------8--8-8-8-8-8--|
|-----------------------|-----------------------|
|-----------------------|-----------------------|
|-----------------------|-----------------------|
|
|  E  E E  E   E  E E E    E   E  E  E E E E E
|-----------------------|-----------------------|
|-----------------------|-----------------------|
|--6--6-6--6---6--6-6-6-|--6---4--4--4-4-4-4-4--|
|-----------------------|-----------------------|
|-----------------------|-----------------------|
|-----------------------|-----------------------|
|
|  Q.      E  +H           E   E  H.
|-14------12-(12)-------|-12--14-11-------------|
|-----------------------|--------12-------------|
|--4--------------------|-(4)-----8-------------|
|--4--------------------|-(4)-----9-------------|
|--2--------------------|-(2)-----6-------------|
|-----------------------|-----------------------|
   W                      +Q      H.


  C#5
   E  E E  E  E E  E  E     E   E E E E  E  E E
   |  | |  |  | |  |  |     |   | | | |  |  | |
   /  / /  /  / /  /  /     /   / / / /  /  / /

   E  E E  E  E E  E  E     E   E E E E  E  E E
|-----------------------|-----------------------|
|-----------------------|-------9-9-9-9---------|
|--8--8-8--9--9-9--8--9-|---9------------9--9-9-|
|-----------------------|-----------------------|
|-----------------------|-----------------------|
|-----------------------|-----------------------|
|
|  E  E E  E  E E  E  E     E   E E E E  E  E E
|-----------------------|-----------------------|
|-----------------------|-----------------------|
|-----------------------|-------6-6-6-6--6--6-6-|
|--6--6-6--6--6-6--6--6-|---6-------------------|
|-----------------------|-----------------------|
|-----------------------|-----------------------|
|
|  Q.      Q.      E  E    +E   H        Q.
|-----------------------|------16---------------|
|-16------17------16-17-|-(17)----------17------|
|--6--------------------|--(6)------------------|
|--6--------------------|--(6)------------------|
|--4--------------------|--(4)------------------|
|-----------------------|-----------------------|
   W                       +W


   E  E E  E  E E  E E    E  E E E   E   E  E E
   |  | |  |  | |  | |    |  | | |   |   |  | |
   /  / /  /  / /  / /    /  / / /   /   /  / /

   E  E E  E  E E  E E    E  E E E   E   E  E E
|----------------------|
Добавлено: 08.06.2012
Другие материалы по этой песне:

Страница создана 31.03.2012
http://primanota.ru/swallow-the-sun/fragile-chords.htm
Привет, Гость.
Предлагаем пройти революционный курс по гитаре.
Подарок от PrimaNota.Ru, забирай!