PrimaNota.ru - самый крупный в мире бесплатный архив песенных текстов, аккордов, табулатур и нот


Swallow The Sun - Hope - текст песни, таба, видео

Регистрация Запомнить меня
Войти через:  Facebook Google Twitter Vk Yandex Mail.ru

Swallow The Sun - Hope - текст песни, таба, видео

Печатать
Просмотров: 181
Авторы музыки: Juha Raivio
Авторы текста: Juha Raivio
As recorded by Swallow The Sun
(From the 2007 Album HOPE)

Transcribed by Danny Heater
Transferred to tab by Jerry Brown jr.
Blackritual0@yahoo.com
	

Words and Music by Juha Raivio

D5
0 0 0 x x x
	
Dm
x x 0 7 6 5

Gtr I (C G C F A D) - 'Untitled'
Gtr II (C G C F A D) - 'Untitled'
Gtr III (C G C F A D) - 'Untitled'
Gtr IV (C G C F A D) - 'Untitled'
Gtr V (C G C F A D) - 'Untitled'
Gtr VI (C G C F A D) - 'Untitled'

 Intro
  Q=135
  N.C.
 7/4
  Gtr II
   Q    Q  E  E E  Q       Q  E  E E     Q     Q  E  E E  Q       Q  E  E E
|------------------------------------|--------------------------------------|
|-10-------8------10---------------8-|--10--------8------10---------------8-|
|-------7----10-9----------7--9-10---|---------7----10-9----------7--9-10---|
|------------------------------------|--------------------------------------|
|------------------------------------|--------------------------------------|
|------------------------------------|--------------------------------------|
|
| Gtr I
|  E E  Q  Q    E  E   E   Q  Q    E     E  E  Q  Q    E  E   E   Q  Q    E
|------------------------------------|--------------------------------------|
|----8-10-------8---------10---------|------8-10-------8---------10---------|
|-10-------7------10---9------7----9-|--10--------7------10---9------7----9-|
|------------------------------------|--------------------------------------|
|------------------------------------|--------------------------------------|
|------------------------------------|--------------------------------------|
|
| Gtr V
|  W                  +H.               +W                   +H.
|------------------------------------|--------------------------------------|
|------------------------------------|--------------------------------------|
|-10-----------------(10)------------|-(10)-----------------(10)------------|
|------------------------------------|--------------------------------------|
|------------------------------------|--------------------------------------|
|------------------------------------|--------------------------------------|


    Q     Q    E   E E  Q    Q   E   E E
|-----------------------------------------|
|--10----------8-------10--------------8--|
|---------7-------10-9-------7---9--10----|
|-----------------------------------------|
|-----------------------------------------|
|-----------------------------------------|
|
|   E  E  Q    Q     E  E E  Q   Q     E
|-----------------------------------------|
|------8-10----------8------10------------|
|--10----------7-------10-9------7-----9--|
|-----------------------------------------|
|-----------------------------------------|
|-----------------------------------------|
|
|  +H         +Q.       H       +Q.
|-----------------------------------------|
|-----------------------------------------|
|-(10)-------(10)-------6-------(6)-------|
|-----------------------------------------|
|-----------------------------------------|
|-----------------------------------------|


   Q    Q  E  E E  Q      Q  E  E E    Q    Q   E   E E  Q    Q    E   E E
|-----------------------------------|--------------------------------------|
|-10-------8------10--------------8-|-10--------8-------10---------------8-|
|-------7----10-9---------7--9-10---|-------7------10-9-------7----9--10---|
|-----------------------------------|--------------------------------------|
|-----------------------------------|--------------------------------------|
|-----------------------------------|--------------------------------------|
|
|  E E  Q  Q    E  E  E   Q  Q    E    E E  Q   Q     E  E E  Q    Q     E
|-----------------------------------|--------------------------------------|
|----8-10-------8--------10---------|----8-10---------8------10------------|
|-10-------7------10--9------7----9-|-10--------7-------10-9-------7-----9-|
|-----------------------------------|--------------------------------------|
|-----------------------------------|--------------------------------------|
|-----------------------------------|--------------------------------------|
|
|  W                 +H.               H       +Q.       H        +Q.
|-----------------------------------|--------------------------------------|
|-----------------------------------|--------------------------------------|
|-----------------------------------|--------------------------------------|
|--8-----------------(8)------------|--7-------(7)------10-------(10)------|
|-----------------------------------|--------------------------------------|
|-----------------------------------|--------------------------------------|


  D5
  Gtr IV
   Q  Q  E  E E  Q     Q  E  E E    Q   Q  E  E E  Q     Q  E  E E
|--------------------------------|---------------------------------|
|-10-----8------10-------------8-|-10------8------10-------------8-|
|-----7----10-9--------7--9-10---|------7----10-9--------7--9-10---|
|--------------------------------|---------------------------------|
|--------------------------------|---------------------------------|
|--------------------------------|---------------------------------|
|
| Gtr III
|  W               +H.             +W                +H.
|--------------------------------|---------------------------------|
|--------------------------------|---------------------------------|
|--------------------------------|---------------------------------|
|--0---------------(0)-----------|-(0)---------------(0)-----------|
|--0---------------(0)-----------|-(0)---------------(0)-----------|
|--0---------------(0)-----------|-(0)---------------(0)-----------|


                                   N.C.            F5/C
   Q  Q  E  E E  Q     Q  E  E E    Q  Q   E   E E  Q  Q   E   E E
|--------------------------------|---------------------------------|
|-10-----8------10-------------8-|-10------8-------10------------8-|
|-----7----10-9--------7--9-10---|-----7------10-9-----7---9--10---|
|--------------------------------|---------------------------------|
|--------------------------------|---------------------------------|
|--------------------------------|---------------------------------|
|
|  W               +H.              H     +Q.       H     +Q.
|--------------------------------|---------------------------------|
|--------------------------------|------------------6-----(6)------|
|--------------------------------|--7-----(7)-------5-----(5)------|
|--0---------------(0)-----------|------------------3-----(3)------|
|--0---------------(0)-----------|--5-----(5)-------3-----(3)------|
|--0---------------(0)-----------|---------------------------------|


    D5
     Q   Q    E   E E  Q   Q     E   E E    Q   Q    E   E E  Q   Q    E   E E
||---------------------------------------|-------------------------------------|
||o-10--------8-------10---------------8-|-10--------8-------10--------------8-|
||-------7-------10-9------7-----9--10---|------7-------10-9------7----9--10---|
||---------------------------------------|-------------------------------------|
||o--------------------------------------|-------------------------------------|
||---------------------------------------|-------------------------------------|
|
|    PM----------------------------------------------------------------------|
|    E E E E  E   E E  E E E E   E   E E    E E E E  E   E E  E E E E  E   E E
||---------------------------------------|-------------------------------------|
||o--------------------------------------|-------------------------------------|
||---------------------------------------|-------------------------------------|
||---------------------------------------|-------------------------------------|
||o--0-0-0-0--0---0-0--0-0-0-0---0---0-0-|--0-0-0-0--0---0-0--0-0-0-0--0---0-0-|
||---0-0-0-0--0---0-0--0-0-0-0---0---0-0-|--0-0-0-0--0---0-0--0-0-0-0--0---0-0-|
|
|   Gtr V
|    H       +Q.       H        +Q.         H       +Q.       H       +Q.
||---------------------------------------|-------------------------------------|
||o--------------------------------------|-------------------------------------|
||---7-------(7)------10-------(10)------|--9-------(9)-------6-------(6)------|
||---------------------------------------|-------------------------------------|
||o--------------------------------------|-------------------------------------|
||---------------------------------------|-------------------------------------|


  N.C.
   Q   Q    E   E E  Q     Q      E   E  E    Q   Q    E   E E  Q   Q    E   E E
|------------------------------------------|-----------------------------------------||
|-10--------8-------10-------------------8-|-10--------8-------10--------------8----o||
|------7-------10-9--------7------9--10----|------7-------10-9------7----9--10-------||
|------------------------------------------|-----------------------------------------||
|------------------------------------------|----------------------------------------o||
|------------------------------------------|-----------------------------------------||
|
|  E E E E  E   E E  E  E  E  E   E   E  E    E E E E  E   E E  E E E E  E   E E
|------------------------------------------|-----------------------------------------||
|------------------------------------------|----------------------------------------o||
|--7-7-7-7--7---7-7-10-10-10-10--10--10-10-|--5-5-5-5--5---5-5--9-9-9-9--9---9-9-----||
|------------------------------------------|-----------------------------------------||
|--5-5-5-5--5---5-5--8--8--8--8---8---8--8-|--3-3-3-3--3---3-3--7-7-7-7--7---7-7----o||
|------------------------------------------|-----------------------------------------||
|
|  H       +Q.       H           +Q.          H       +Q.       H       +Q.
|------------------------------------------|-----------------------------------------||
|------------------------------------------|----------------------------------------o||
|--7-------(7)------10----------(10)-------|--5-------(5)-------9-------(9)----------||
|------------------------------------------|-----------------------------------------||
|------------------------------------------|----------------------------------------o||
|------------------------------------------|-----------------------------------------||


  D5
   Q   Q   E  E E  Q      Q   E  E E     Q    Q     E   E E   Q    Q     E   E E
|------------------------------------|-------------------------------------------|
|-10-------8------10---------------8-|--10----------8--------10----------------8-|
|------7-----10-9---------7---9-10---|--------7--------10-9--------7-----9--10---|
|------------------------------------|-------------------------------------------|
|------------------------------------|-------------------------------------------|
|------------------------------------|-------------------------------------------|
|
|  E E E E E  E E  E   E  E E E  E E     E  E E E   E   E E   E  E E E   E   E E
|------------------------------------|-------------------------------------------|
|------------------------------------|-------------------------------------------|
|------------------------------------|-------------------------------------------|
|--0-0-0-0-0--0-0--0---0--0-0-0--0-0-|---0--0-0-0---0---0-0---0--0-0-0---0---0-0-|
|--0-0-0-0-0--0-0--0---0--0-0-0--0-0-|---0--0-0-0---0---0-0---0--0-0-0---0---0-0-|
|--0-0-0-0-0--0-0--0---0--0-0-0--0-0-|---0--0-0-0---0---0-0---0--0-0-0---0---0-0-|
|
|  W                  +H.               +H         +Q.        H         +Q.
|-10-----------------(10)------------|-(10)-------(10)-------12--------(12)------|
|-10-----------------(10)------------|-(10)-------(10)------(10)-------(10)------|
|--7------------------(7)------------|--(7)--------(7)-------(7)--------(7)------|
|------------------------------------|-------------------------------------------|
|------------------------------------|-------------------------------------------|
|------------------------------------|-------------------------------------------|


  A5                                     Bb5
    Q    Q   E  E E  Q      Q   E  E E    Q   Q     E   E E  Q   Q     E   E E
|--------------------------------------|---------------------------------------|
|--10--------8------10---------------8-|-10---------8-------10---------------8-|
|--------7-----10-9---------7---9-10---|------7--------10-9------7-----9--10---|
|--------------------------------------|---------------------------------------|
|--------------------------------------|---------------------------------------|
|--------------------------------------|---------------------------------------|
|
|   E  E E E E  E E  E   E  E E E  E E    E E E E   E   E E  E E E E   E   E E
|--------------------------------------|---------------------------------------|
|--------------------------------------|---------------------------------------|
|--------------------------------------|---------------------------------------|
|---7--7-7-7-7--7-7--7---7--7-7-7--7-7-|--8-8-8-8---8---8-8--8-8-8-8---8---8-8-|
|---7--7-7-7-7--7-7--7---7--7-7-7--7-7-|--8-8-8-8---8---8-8--8-8-8-8---8---8-8-|
|---7--7-7-7-7--7-7--7---7--7-7-7--7-7-|--8-8-8-8---8---8-8--8-8-8-8---8---8-8-|
|
|   W                   +H.               H        +Q.       H        +Q.
|-(12)-----------------(12)------------|-10-------(10)-------8--------(8)------|
|--10------------------(10)------------|-11-------(11)-------------------------|
|---9-------------------(9)------------|-10-------(10)------10-------(10)------|
|--10------------------(10)------------|---------------------8--------(8)------|
|--------------------------------------|---------------------------------------|
|--------------------------------------|---------------------------------------|


  D5              E5                   F5                   G5
   Q   Q   E  E E  Q      Q   E  E E     Q    Q     E   E E   Q    Q     E   E E
|------------------------------------|-------------------------------------------|
|-10-------8------10---------------8-|--10----------8--------10----------------8-|
|------7-----10-9---------7---9-10---|--------7--------10-9--------7-----9--10---|
|------------------------------------|-------------------------------------------|
|------------------------------------|-------------------------------------------|
|------------------------------------|-------------------------------------------|
|
|  E E E E E  E E  E   E  E E E  E E     E  E E E   E   E E   E  E E E   E   E E
|------------------------------------|-------------------------------------------|
|------------------------------------|-------------------------------------------|
|------------------------------------|-------------------------------------------|
|--0-0-0-0-0--0-0--2---2--2-2-2--2-2-|---3--3-3-3---3---3-3---5--5-5-5---5---5-5-|
|--0-0-0-0-0--0-0--2---2--2-2-2--2-2-|---3--3-3-3---3---3-3---5--5-5-5---5---5-5-|
|--0-0-0-0-0--0-0--2---2--2-2-2--2-2-|---3--3-3-3---3---3-3---5--5-5-5---5---5-5-|
|
|  W                  +H.               +H         +Q.        H         +Q.
|-10-----------------(10)------------|-(10)-------(10)-------12--------(12)------|
|-10-----------------(10)------------|-(10)-------(10)------(10)-------(10)------|
|--7------------------(7)------------|--(7)--------(7)-------(7)--------(7)------|
|------------------------------------|-------------------------------------------|
|------------------------------------|-------------------------------------------|
|------------------------------------|-------------------------------------------|


  A5                N.C.                                                  Eb5
    Q    Q   E  E E  Q      Q   E  E E    Q   Q     E   E E  Q   Q     E   E E
|--------------------------------------|---------------------------------------||
|--10--------8------10---------------8-|-10---------8-------10---------------8-||
|--------7-----10-9---------7---9-10---|------7--------10-9------7-----9--10---||
|--------------------------------------|---------------------------------------||
|--------------------------------------|---------------------------------------||
|--------------------------------------|---------------------------------------||
|
|   E  E E E E  E E  E   E  E E E  E E    E E E E   E   E E  E E E E   E   Q
|--------------------------------------|---------------------------------------||
|--------------------------------------|---------------------------------------||
|--------------------4---4--4-4-4--4-4-|--3-3-3-3---3---3-3--3-3-3-3---3-------||
|---7--7-7-7-7--7-7--------------------|-----------------------------------1---||
|---7--7-7-7-7--7-7--2---2--2-2-2--2-2-|--1-1-1-1---1---1-1--1-1-1-1---1---1---||
|---7--7-7-7-7--7-7--------------------|-----------------------------------1---||
|
|   W                    H.               H        +Q.       H        +Q.
|-(12)-----------------(12)------------|-10-------(10)-------8--------(8)------||
|--10------------------(10)------------|-11-------(11)-------------------------||
|---9-------------------(9)------------|-10-------(10)------10-------(10)------||
|--10--------------------9-------------|---------------------8--------(8)------||
|--------------------------------------|---------------------------------------||
|--------------------------------------|---------------------------------------||


 Verse
  D5
 4/4
  Gtr V
  W                 +W                  +W                  +W
  |                  |                   |                   |
  /                  /                   /                   /

  Gtr II
  E E E E E E E E    E  E E E E E E E    E  E E E E E E E    E  E E E E E E E
|-----------------|-------------------|--5----------------|-------------------|
|-6---6---6---6---|--5----5---5---5---|-------5---5---5---|--5----------------|
|-----------------|-------------------|-------------------|-------2---2---2---|
|---0---0---0---0-|-----0---0---0---0-|-----0---0---0---0-|-----0---0---0---0-|
|-----------------|-------------------|-------------------|-------------------|
|-----------------|-------------------|-------------------|-------------------|
|
| Gtr IV
| >
| W                 +W                  +W                  +W
|-----------------|-------------------|-------------------|-------------------|
|-----------------|-------------------|-------------------|-------------------|
|-----------------|-------------------|-------------------|-------------------|
|-0---------------|-(0)---------------|-(0)---------------|-(0)---------------|
|-0---------------|-(0)---------------|-(0)---------------|-(0)---------------|
|-0---------------|-(0)---------------|-(0)---------------|-(0)---------------|
|
| Gtr III
| >
| W                 +W                  +W                  +W
|-----------------|-------------------|-------------------|-------------------|
|-----------------|-------------------|-------------------|-------------------|
|-----------------|-------------------|-------------------|-------------------|
|-0---------------|-(0)---------------|-(0)---------------|-(0)---------------|
|-0---------------|-(0)---------------|-(0)---------------|-(0)---------------|
|-0---------------|-(0)---------------|-(0)---------------|-(0)---------------|


  +W                  +W
   |                   |
   /                   /

   E E E  E E E E E    E  E E E   E E E E
|-------------------|---------------------|
|--6---6----6---6---|--5----5-----5---5---|
|-------------------|---------------------|
|----0----0---0---0-|-----0---0-----0---0-|
|-------------------|---------------------|
|-------------------|---------------------|
|
|  E E H.             +H          H
|-------------------|---------------------|
|-------------------|---------------------|
|-10-9-7------------|-(7)-------/12-------|
|-------------------|---------------------|
|-------------------|---------------------|
|-------------------|---------------------|


  +W                   +W
   |                    |
   /                    /

   E  E E  E E E E E    E  E E E E E E E
|--5-----------------|-------------------|
|-------5----5---5---|--5----------------|
|--------------------|-------2---2---2---|
|-----0----0---0---0-|-----0---0---0---0-|
|--------------------|-------------------|
|--------------------|-------------------|
|
|  E  E H.              E  E Q   E E Q
|--------------------|-------------------|
|--------------------|-------------------|
|-12-10-9------------|--9-10-7---7s5-5---|
|--------------------|-------------------|
|--------------------|-------------------|
|--------------------|-------------------|


    N.C.
     E E E  E E E E E    E  E E E   E  E E E
||--------------------|----------------------|
||o--6---6----6---6---|--5----5-----5----5---|
||--------------------|----------------------|
||-----8----8---8---8-|-----8---8------7---7-|
||o-------------------|----------------------|
||--------------------|----------------------|
|
|    E E H.             +H          H
||--------------------|----------------------|
||o-------------------|----------------------|
||--10-9-7------------|-(7)-------/12--------|
||--------------------|----------------------|
||o-------------------|----------------------|
||--------------------|----------------------|
|
|   Gtrs V, VI
|    W                  +H          H
||---6----------------|-(6)---------8--------|
||o-------------------|----------------------|
||---7----------------|-(7)---------5--------|
||---8----------------|-(8)---------7--------|
||o--8----------------|-(8)--------(8)-------|
||--------------------|----------------------|


   E  E E  E E E E E    E   E E E E E E E
|--5-----------------|---------------------|
|-------5----5---5---|--5------------------|
|--------------------|--------7---7---7----|
|-----7----7---7---7-|------7---7---7---7--|
|--------------------|---------------------|
|--------------------|---------------------|
|
|  E  E H.              E   E Q   E E Q
|--------------------|---------------------|
|--------------------|---------------------|
|-12s14-9------------|--9--10-7---7s5-5----|
|--------------------|---------------------|
|--------------------|---------------------|
|--------------------|---------------------|
|
|  W                   +W
|--5-----------------|-(5)-----------------|
|--------------------|---------------------|
|--5-----------------|-(5)-----------------|
|--7-----------------|-(7)-----------------|
|--7-----------------|-(7)-----------------|
|--------------------|---------------------|


   E E E  E E E E E    E  E E E   E E E E
|-------------------|---------------------|
|--6---6----6---6---|--5----5-----5---5---|
|-------------------|---------------------|
|----0----0---0---0-|-----0---0-----0---0-|
|-------------------|---------------------|
|-------------------|---------------------|
|
|  E E H.             +H          H
|-------------------|---------------------|
|-------------------|---------------------|
|-10-9-7------------|-(7)-------/12-------|
|-------------------|---------------------|
|-------------------|---------------------|
|-------------------|---------------------|
|
|  W                  +W
|-------------------|---------------------|
|-------------------|---------------------|
|--7----------------|-(7)-----------------|
|--0----------------|-(0)-----------------|
|-------------------|---------------------|
|-------------------|---------------------|


   E   E E  E E E E E    E   E E E  E  E E E  4x
|--5------------------|-----------------------||
|--------5----5---5---|--5-------------------o||
|---------------------|--------2----2----2----||
|------0----0---0---0-|------0---0-----0---0--||
|---------------------|----------------------o||
|---------------------|-----------------------||
|
|  E   E H.              E   E Q    E  E Q    4x
|---------------------|-----------------------||
|---------------------|----------------------o||
|-12--10-9------------|--9--10-7----7s=5-5----||
|---------------------|-----------------------||
|---------------------|----------------------o||
|---------------------|-----------------------||
|
|  W                    +H          H         4x
|--5------------------|-(5)-------------------||
|--6------------------|-(6)---------8--------o||
|-(7)-----------------|-(7)--------(7)--------||
|-(0)-----------------|-(0)--------(0)--------||
|---------------------|----------------------o||
|---------------------|-----------------------||


                    D5
  E E E E E E E E    E  E E E E E E E
|-----------------|-------------------|
|-6---6---6---6---|--5----5---5---5---|
|-----------------|-------------------|
|---8---8---8---8-|-----8---8---7---7-|
|-----------------|-------------------|
|-----------------|-------------------|
|
| Gtrs III, IV
|                    <
| W                  W
|-----------------|-------------------|
|-----------------|-------------------|
|-----------------|-------------------|
|-----------------|--0----------------|
|-----------------|--0----------------|
|-----------------|--0----------------|
|
| >
| W                 +W
|-6---------------|-(6)---------------|
|-----------------|-------------------|
|-7---------------|-(7)---------------|
|-8---------------|-(8)---------------|
|-8---------------|-(8)---------------|
|-----------------|-------------------|


   E  E E E E E E E     E  E E E E E E E
|--5----------------|--------------------||
|-------5---5---5---|---5----------------||
|-------------------|--------7---7---7---||
|-----7---7---7---7-|------7---7---7---7-||
|-------------------|--------------------||
|-------------------|--------------------||
|
| +W                   +W
|-------------------|--------------------||
|-------------------|--------------------||
|-------------------|--------------------||
|-(0)---------------|--(0)---------------||
|-(0)---------------|--(0)---------------||
|-(0)---------------|--(0)---------------||
|
|  <
|  W                   +W
|-13----------------|-(13)---------------||
|-------------------|--------------------||
|-10----------------|-(10)---------------||
|-12----------------|-(12)---------------||
|-------------------|--------------------||
|-------------------|--------------------||


   Pre-Chorus
    $
    Dsus2   D5  Dsus2         D5  (Dsus2)
    Gtr IV
            PM|               PM|
     Q   Q  E E  Q     Q   Q  E E  E   E
||------------------|---------------------|
||o--5---5-------5--|--5---5-------5---6--|
||------------------|---------------------|
||---7---7-------7--|--7---7-------7---7--|
||o--5---5--0-0--5--|--5---5--0-0--5---5--|
||---0---0--0-0--0--|--0---0--0-0--0---0--|
|
|   Gtr III
|           PM|               PM|
|    Q   Q  E E  Q     Q   Q  E E  E   E
||------------------|---------------------|
||o--5---5-------5--|--5---5-------5---6--|
||------------------|---------------------|
||---7---7-------7--|--7---7-------7---7--|
||o--5---5--0-0--5--|--5---5--0-0--5---5--|
||---0---0--0-0--0--|--0---0--0-0--0---0--|
|
|    Q   Q  Q    Q     Q   Q  Q    E   E
||--12--12------12--|-12--12------12--13--|
||o-10--10------10--|-10--10------10-(10)-|
||---9---9-------9--|--9---9-------9--(9)-|
||---7---7-------7--|--7---7-------7--(7)-|
||o-----------------|---------------------|
||------------------|---------------------|


          D5  Dsus2 G5         Bb5
          PM|
   Q   Q  E E  Q    E E E E  E E E E
|-----------------|-------------------|
|--5---5-------5--|-------------------|
|-----------------|-------------------|
|--7---7-------7--|-------------------|
|--5---5--0-0--5--|-3-3-3-3--3-5-5-5--|
|--0---0--0-0--0--|-------------------|
|
|         PM|
|  Q   Q  E E  Q    E E E E  E E E E
|-----------------|-------------------|
|--5---5-------5--|-------------------|
|-----------------|-------------------|
|--7---7-------7--|-5-5-5-5--5-8-8-8--|
|--5---5--0-0--5--|-5-5-5-5--5-8-8-8--|
|--0---0--0-0--0--|-5-5-5-5--5-8-8-8--|
|
|  Q   Q  Q    Q    H        H
|-12--12------12--|-------------------|
|-10--10------10--|-8-------11--------|
|--9---9-------9--|-9--------7--------|
|--7---7-------7--|-5--------8--------|
|-----------------|-------------------|
|-----------------|-------------------|


  1.
  Dsus2   D5  Dsus2         D5  (Dsus2)
          PM|               PM|
   Q   Q  E E  Q     Q   Q  E E  E   E
|-----------------|---------------------|
|--5---5-------5--|--5---5-------5---6--|
|-----------------|---------------------|
|--7---7-------7--|--7---7-------7---7--|
|--5---5--0-0--5--|--5---5--0-0--5---5--|
|--0---0--0-0--0--|--0---0--0-0--0---0--|
|
|         PM|               PM|
|  Q   Q  E E  Q     Q   Q  E E  E   E
|-----------------|---------------------|
|--5---5-------5--|--5---5-------5---6--|
|-----------------|---------------------|
|--7---7-------7--|--7---7-------7---7--|
|--5---5--0-0--5--|--5---5--0-0--5---5--|
|--0---0--0-0--0--|--0---0--0-0--0---0--|
|
|  Q   Q  Q    Q     Q   Q  Q    E   E
|-12--12------12--|-12--12------12--13--|
|-10--10------10--|-10--10------10-(10)-|
|--9---9-------9--|--9---9-------9--(9)-|
|--7---7-------7--|--7---7-------7--(7)-|
|-----------------|---------------------|
|-----------------|---------------------|


              D5  Dsus2 G5         Bb5
              PM|
   E   E   Q  E E  Q    E E E E  E E E E
|---------------------|-------------------||
|--8---5---5-------5--|------------------o||
|---------------------|-------------------||
|--7---7---7-------7--|-------------------||
|--5---5---5--0-0--5--|-3-3-3-3--3-5-5-5-o||
|--0---0---0--0-0--0--|-------------------||
|
|             PM|
|  E   E   Q  E E  Q    E E E E  E E E E
|---------------------|-------------------||
|--8---5---5-------5--|------------------o||
|---------------------|-------------------||
|--7---7---7-------7--|-5-5-5-5--5-8-8-8--||
|--5---5---5--0-0--5--|-5-5-5-5--5-8-8-8-o||
|--0---0---0--0-0--0--|-5-5-5-5--5-8-8-8--||
|
|  E   E   Q  Q    Q    H        H
|-15--12--12------12--|-------------------||
|-10-(10)-10------10--|-8-------11-------o||
|--9--(9)--9-------9--|-9--------7--------||
|--7--(7)--7-------7--|-5--------8--------||
|---------------------|------------------o||
|---------------------|-------------------||


  2.
  Dsus2   D5  Dsus2         D5  (Dsus2)
          PM|               PM|
   Q   Q  E E  Q     Q   Q  E E  E   E
|-----------------|---------------------|
|--5---5-------5--|--5---5-------5---6--|
|-----------------|---------------------|
|--7---7-------7--|--7---7-------7---7--|
|--5---5--0-0--5--|--5---5--0-0--5---5--|
|--0---0--0-0--0--|--0---0--0-0--0---0--|
|
|         PM|               PM|
|  Q   Q  E E  Q     Q   Q  E E  E   E
|-----------------|---------------------|
|--5---5-------5--|--5---5-------5---6--|
|-----------------|---------------------|
|--7---7-------7--|--7---7-------7---7--|
|--5---5--0-0--5--|--5---5--0-0--5---5--|
|--0---0--0-0--0--|--0---0--0-0--0---0--|
|
|  Q   Q  Q    Q     Q   Q  Q    E   E
|-12--12------12--|-12--12------12--13--|
|-10--10------10--|-10--10------10-(10)-|
|--9---9-------9--|--9---9-------9--(9)-|
|--7---7-------7--|--7---7-------7--(7)-|
|-----------------|---------------------|
|-----------------|---------------------|


              D5  Dsus2 G5       D5
              PM|
   E   E   Q  E E  Q     E E E E  E  E  Q
|---------------------|---------------------||
|--8---5---5-------5--|---------------------||
|---------------------|--5-5-5-5-14-12-14---||
|--7---7---7-------7--|---------------------||
|--5---5---5--0-0--5--|--3-3-3-3-12-10-12---||
|--0---0---0--0-0--0--|---------------------||
|
|             PM|
|  E   E   Q  E E  Q     E E E E  E  E  E E
|---------------------|---------------------||
|--8---5---5-------5--|---------------------||
|---------------------|---------------------||
|--7---7---7-------7--|--5-5-5-5--0--0--0-0-||
|--5---5---5--0-0--5--|--5-5-5-5--0--0--0-0-||
|--0---0---0--0-0--0--|--5-5-5-5--0--0--0-0-||
|
|  E   E   Q  Q    Q     H        H
|-15--12--12------12--|-15-------15---------||
|-10-(10)-10------10--|--8-------10---------||
|--9--(9)--9-------9--|--9--------9---------||
|--7--(7)--7-------7--|--5--------7---------||
|---------------------|---------------------||
|---------------------|---------------------||


   Chorus
    D5                  F5               C5
     E  E  H     E  E    H     Q.    E    E  E H.         +H      E  E  Q
||--------------------|----------------|---------------|--------------------|
||o-------------------|----------------|---------------|--------------------|
||--12-10-12----12-10-|-10----12----12-|-12-10-9-------|--(9)----14-12-14---|
||--------------------|----------------|---------------|--------------------|
||o-10--8-10----10--8-|--8-----7-----7-|--7--5-3-------|--(3)----12-10-12---|
||--------------------|----------------|---------------|--------------------|
|
|    W                   W                W               +W
||--------------------|----------------|---------------|--------------------|
||o-------------------|----------------|---------------|--------------------|
||--------------------|----------------|--5------------|--(5)---------------|
||---0----------------|--3-------------|--5------------|--(5)---------------|
||o--0----------------|--3-------------|--3------------|--(3)---------------|
||---0----------------|--3-------------|---------------|--------------------|
|
|    W                   W                W               +W
||--15----------------|-13-------------|-12------------|-(12)---------------|
||o-10----------------|--6-------------|-13------------|-(13)---------------|
||---7----------------|--5-------------|-12------------|-(12)---------------|
||---7----------------|--3-------------|-10------------|-(10)---------------|
||o-------------------|----------------|---------------|--------------------|
||--------------------|----------------|---------------|--------------------|


  D5                  F5               A5
   E  E  H     E  E    H     Q.    E    E  E H.
|-------------------|----------------|---------------|
|-------------------|----------------|---------------|
|-12-10-12----12-10-|-10----12----12-|-12-10-9-------|
|-------------------|----------------|---------------|
|-10--8-10----10--8-|--8-----7-----7-|--7--5-3-------|
|-------------------|----------------|---------------|
|
|  W                   W                W
|-------------------|----------------|---------------|
|-------------------|----------------|---------------|
|-------------------|----------------|---------------|
|--0----------------|--3-------------|--7------------|
|--0----------------|--3-------------|--7------------|
|--0----------------|--3-------------|--7------------|
|
|  W                   W                W
|-15----------------|-13-------------|-12------------|
|-10----------------|--6-------------|-10------------|
|--7----------------|--5-------------|--9------------|
|--7----------------|--3-------------|--7------------|
|-------------------|----------------|---------------|
|-------------------|----------------|---------------|


 1.                       2.
                               To Coda
   +H         E  E  Q        H          H
|-----------------------||-------------------||
|----------------------o||-------------------||
|--(9)-------14-12-14---||--(9)-------/14----||
|-----------------------||-------------------||
|--(3)-------12-10-12--o||--(3)-------/12----||
|-----------------------||-------------------||
|
|  +W                       +W
|-----------------------||-------------------||
|----------------------o||-------------------||
|-----------------------||-------------------||
|--(7)------------------||--(7)--------------||
|--(7)-----------------o||--(7)--------------||
|--(7)------------------||--(7)--------------||
|
|  +Q    H.                  Q    H.
|-(12)--10--------------||-(12)--10----------||
|-(10)--10-------------o||-(10)--10----------||
|--(9)---7--------------||--(9)---7----------||
|--(7)---7--------------||--(7)---7----------||
|----------------------o||-------------------||
|-----------------------||-------------------||


 Bridge
  D5                                                       G5            Bb5
   E E H.           +H        H         E   E H.           E  S S Q    E E Q
|-----------------|------------------|-------------------|---------------------|
|-----------------|------------------|-------------------|---------------------|
|-10-9-7----------|-(7)-----/12------|-12--10-9----------|-9-10-9-7----7s5-5---|
|-----------------|------------------|-------------------|---------------------|
|-----------------|------------------|-------------------|---------------------|
|-----------------|------------------|-------------------|---------------------|
|
|          PM|                PM|                 PM|
|  Q   Q   E E Q     Q   Q    E E Q     Q     Q   E E Q    E  E   E E  E E E E
|-----------------|------------------|-------------------|---------------------|
|-----------------|------------------|-------------------|---------------------|
|-----------------|------------------|-------------------|---------------------|
|--0---0-------0--|--0---0--------0--|--0-----0-------0--|-5--5---5-5--5-8-8-8-|
|--0---0---0-0-0--|--0---0----0-0-0--|--0-----0---0-0-0--|-5--5---5-5--5-8-8-8-|
|--0---0---0-0-0--|--0---0----0-0-0--|--0-----0---0-0-0--|-5--5---5-5--5-8-8-8-|
|
|  W                +W                 +W                  H           H
|-----------------|------------------|-------------------|---------------------|
|-----------------|------------------|-------------------|-8----------11-------|
|--7--------------|-(7)--------------|-(7)---------------|-7----------10-------|
|--7--------------|-(7)--------------|-(7)---------------|-5-----------8-------|
|--5--------------|-(5)--------------|-(5)---------------|---------------------|
|-----------------|------------------|-------------------|---------------------|


  D5
   E E H.           +H        H
|-----------------|------------------|
|-----------------|------------------|
|-10-9-7----------|-(7)-----/12------|
|-----------------|------------------|
|-----------------|------------------|
|-----------------|------------------|
|
|          PM|                PM|
|  Q   Q   E E Q     Q   Q    E E Q
|-----------------|------------------|
|-----------------|------------------|
|-----------------|------------------|
|--0---0-------0--|--0---0--------0--|
|--0---0---0-0-0--|--0---0----0-0-0--|
|--0---0---0-0-0--|--0---0----0-0-0--|
|
|  W                +W
|-----------------|------------------|
|-----------------|------------------|
|--7--------------|-(7)--------------|
|--7--------------|-(7)--------------|
|--5--------------|-(5)--------------|
|-----------------|------------------|


                      G5            Bb5
   E   E H.           E  S S Q    E E Q
|-------------------|---------------------||
|-------------------|---------------------||
|-12--14-9----------|-9-10-9-7----7s5-5---||
|-------------------|---------------------||
|-------------------|---------------------||
|-------------------|---------------------||
|
|            PM|
|  Q     Q   E E Q    E  E   E E  E E E E
|-------------------|---------------------||
|-------------------|---------------------||
|-------------------|---------------------||
|--0-----0-------0--|-5--5---5-5--5-8-8-8-||
|--0-----0---0-0-0--|-5--5---5-5--5-8-8-8-||
|--0-----0---0-0-0--|-5--5---5-5--5-8-8-8-||
|
| +W                  H           H
|-------------------|---------------------||
|-------------------|-8----------11-------||
|-(7)---------------|-7----------10-------||
|-(7)---------------|-5-----------8-------||
|-(5)---------------|---------------------||
|-------------------|---------------------||


 Verse
  D5
  Gtr II
   E  E   E  E E E E E    E  E E E E E E E
|----------------------|-------------------|
|--6------6----6---6---|--5----5---5---5---|
|----------------------|-------------------|
|-----0------0---0---0-|-----0---0---0---0-|
|----------------------|-------------------|
|----------------------|-------------------|
|
|         >
|  E  E   H.             +W
|----------------------|-------------------|
|----------------------|-------------------|
|-10--9---7------------|-------------------|
|--0-(0)-(0)-----------|-(0)---------------|
|--0-(0)-(0)-----------|-(0)---------------|
|--0-(0)-(0)-----------|-(0)---------------|
|
|  >
|  W                     +W
|----------------------|-------------------|
|----------------------|-------------------|
|--7-------------------|-(7)---------------|
|----------------------|-------------------|
|--5-------------------|-(5)---------------|
|----------------------|-------------------|


   E  E E E E E E E    E  E E E E E E E
|--5----------------|-------------------|
|-------5---5---5---|--5----------------|
|-------------------|-------2---2---2---|
|-----0---0---0---0-|-----0---0---0---0-|
|-------------------|-------------------|
|-------------------|-------------------|
|
| +W                  +W
|-------------------|-------------------|
|-------------------|-------------------|
|-------------------|-------------------|
|-(0)---------------|-(0)---------------|
|-(0)---------------|-(0)---------------|
|-(0)---------------|-(0)---------------|
|
| +W                  +W
|-------------------|-------------------|
|-------------------|-------------------|
|-(7)---------------|-(7)---------------|
|-------------------|-------------------|
|-(5)---------------|-(5)---------------|
|-------------------|-------------------|


  D5                                      Em
  E E E E E E E E    E  E E E  E  E E E   E E E E E E E E    E  E E E E E E E
|-----------------|---------------------|-5---------------|-------------------|
|-6---6---6---6---|--5----5----5----5---|-----5---5---5---|--5----------------|
|-----------------|---------------------|-----------------|-------7---7---7---|
|---8---8---8---8-|-----8---8-----7---7-|---7---7---7---7-|-----7---7---7---7-|
|-----------------|---------------------|-----------------|-------------------|
|-----------------|---------------------|-----------------|-------------------|
|
| <                  >                    <                  >
| W                 +W                    W                 +W
|-----------------|---------------------|-----------------|-------------------|
|-----------------|---------------------|-----------------|-------------------|
|-----------------|---------------------|-----------------|-------------------|
|-7---------------|-(7)-----------------|-5---------------|-(5)---------------|
|-5---------------|-(5)-----------------|-7---------------|-(7)---------------|
|-----------------|---------------------|-----------------|-------------------|
|
| W                 +H         H          W                 +W
|-6---------------|-(6)--------8--------|-5---------------|-(5)---------------|
|-----------------|---------------------|-----------------|-------------------|
|-7---------------|-(7)--------5--------|-5---------------|-(5)---------------|
|-8---------------|-(8)--------7--------|-7---------------|-(7)---------------|
|-8---------------|-(8)-------(8)-------|-7---------------|-(7)---------------|
|-----------------|---------------------|-----------------|-------------------|


  N.C.
  E E E E E E E E    E  E E E E E E E
|-----------------|-------------------|
|-6---6---6---6---|--5----5---5---5---|
|-----------------|-------------------|
|---0---0---0---0-|-----0---0---0---0-|
|-----------------|-------------------|
|-----------------|-------------------|
|
| W                  W
|-----------------|-------------------|
|-----------------|-------------------|
|-----------------|-------------------|
|-----------------|-------------------|
|-----------------|-------------------|
|-----------------|-------------------|
|
| W                 +W
|-----------------|-------------------|
|-----------------|-------------------|
|-7---------------|-(7)---------------|
|-0---------------|-(0)---------------|
|-----------------|-------------------|
|-----------------|-------------------|


   E  E E E E E E E    E  E E E  E  E E E
|--5----------------|---------------------|
|-------5---5---5---|--5------------------|
|-------------------|-------2----2----2---|
|-----0---0---0---0-|-----0---0-----0---0-|
|-------------------|---------------------|
|-------------------|---------------------|
|
|  W                   W
|-------------------|---------------------|
|-------------------|---------------------|
|-------------------|---------------------|
|-------------------|---------------------|
|-------------------|---------------------|
|-------------------|---------------------|
|
|  W                  +H         H
|--5----------------|-(5)-----------------|
|--6----------------|-(6)--------8--------|
|-(7)---------------|-(7)-------(7)-------|
|-(0)---------------|-(0)-------(0)-------|
|-------------------|---------------------|
|-------------------|---------------------|


  D5                                      Em
  E E E E E E E E    E  E E E  E  E E E   E E E E E E E E    E  E E E E E E E
|-----------------|---------------------|-5---------------|-------------------|
|-6---6---6---6---|--5----5----5----5---|-----5---5---5---|--5----------------|
|-----------------|---------------------|-----------------|-------7---7---7---|
|---8---8---8---8-|-----8---8-----7---7-|---7---7---7---7-|-----7---7---7---7-|
|-----------------|---------------------|-----------------|-------------------|
|-----------------|---------------------|-----------------|-------------------|
|
| <                  >                    <                  >
| W                 +W                    W                 +W
|-----------------|---------------------|-----------------|-------------------|
|-----------------|---------------------|-----------------|-------------------|
|-----------------|---------------------|-----------------|-------------------|
|-7---------------|-(7)-----------------|-5---------------|-(5)---------------|
|-5---------------|-(5)-----------------|-7---------------|-(7)---------------|
|-----------------|---------------------|-----------------|-------------------|
|
| W                 +H         H          W                 +W
|-6---------------|-(6)--------8--------|-5---------------|-(5)---------------|
|-----------------|---------------------|-----------------|-------------------|
|-7---------------|-(7)--------5--------|-5---------------|-(5)---------------|
|-8---------------|-(8)--------7--------|-7---------------|-(7)---------------|
|-8---------------|-(8)-------(8)-------|-7---------------|-(7)---------------|
|-----------------|---------------------|-----------------|-------------------|


  N.C.
  E E E E E E E E    E  E E E E E E E
|-----------------|-------------------|
|-6---6---6---6---|--5----5---5---5---|
|-----------------|-------------------|
|---0---0---0---0-|-----0---0---0---0-|
|-----------------|-------------------|
|-----------------|-------------------|
|
| W                  W
|-----------------|-------------------|
|-----------------|-------------------|
|-----------------|-------------------|
|-----------------|-------------------|
|-----------------|-------------------|
|-----------------|-------------------|
|
| W                 +W
|-----------------|-------------------|
|-----------------|-------------------|
|-7---------------|-(7)---------------|
|-0---------------|-(0)---------------|
|-----------------|-------------------|
|-----------------|-------------------|


                      D5
   E  E E E E E E E    E  E E E  E  E E E
|--5----------------|---------------------|
|-------5---5---5---|--5------------------|
|-------------------|-------2----2----2---|
|-----0---0---0---0-|-----0---0-----0---0-|
|-------------------|---------------------|
|-------------------|---------------------|
|
|                      <         >
|  W                   H        +H
|-------------------|---------------------|
|-------------------|---------------------|
|-------------------|---------------------|
|-------------------|--7--------(7)-------|
|-------------------|--5--------(5)-------|
|-------------------|---------------------|
|
|  W                  +H         H
|--5----------------|-(5)-----------------|
|--6----------------|-(6)--------8--------|
|-(7)---------------|-(7)-------(7)-------|
|-(0)---------------|-(0)-------(0)-------|
|-------------------|---------------------|
|-------------------|---------------------|


  F
  E E E E E E E E    E  E E E  E  E E E
|-----------------|---------------------|
|-6---6---6---6---|--5----5----5----5---|
|-----------------|---------------------|
|---8---8---8---8-|-----8---8-----7---7-|
|-----------------|---------------------|
|-----------------|---------------------|
|
| <                  >
| W                 +W
|-----------------|---------------------|
|-----------------|---------------------|
|-----------------|---------------------|
|-7---------------|-(7)-----------------|
|-8---------------|-(8)-----------------|
|-----------------|---------------------|
|
| W                 +H         H
|-6---------------|-(6)--------8--------|
|-----------------|---------------------|
|-7---------------|-(7)--------5--------|
|-8---------------|-(8)--------7--------|
|-8---------------|-(8)-------(8)-------|
|-----------------|---------------------|


  N.C.                        D5
                              Gtr IV
  E E E E E E E E    E  E E E  E  E  Q
|-5---------------|---------------------||
|-----5---5---5---|--5------------------||
|-----------------|-------7---14-12-14--||
|---7---7---7---7-|-----7---7-----------||
|-----------------|---------------------||
|-----------------|---------------------||
|
| W                  H         H
|-----------------|---------------------||
|-----------------|---------------------||
|-----------------|---------------------||
|-----------------|------------0--------||
|-----------------|------------0--------||
|-----------------|------------0--------||
|
| W                 +H         H
|-5---------------|-(5)-------15--------||
|-----------------|-----------10--------||
|-5---------------|-(5)--------9--------||
|-7---------------|-(7)--------7--------||
|-7---------------|-(7)-----------------||
|-----------------|---------------------||


   Chorus
    D5                  F5               C5
     E  E  H     E  E    H     Q.    E    E  E H.         +H      E  E  Q
||--------------------|----------------|---------------|--------------------|
||o-------------------|----------------|---------------|--------------------|
||--12-10-12----12-10-|-10----12----12-|-12-10-9-------|--(9)----14-12-14---|
||--------------------|----------------|---------------|--------------------|
||o-10--8-10----10--8-|--8-----7-----7-|--7--5-3-------|--(3)----12-10-12---|
||--------------------|----------------|---------------|--------------------|
|
|    W                   W                W               +W
||--------------------|----------------|---------------|--------------------|
||o-------------------|----------------|---------------|--------------------|
||--------------------|----------------|--5------------|--(5)---------------|
||---0----------------|--3-------------|--5------------|--(5)---------------|
||o--0----------------|--3-------------|--3------------|--(3)---------------|
||---0----------------|--3-------------|---------------|--------------------|
|
|    W                   W                W               +W
||--15----------------|-13-------------|-12------------|-(12)---------------|
||o-10----------------|--6-------------|-13------------|-(13)---------------|
||---7----------------|--5-------------|-12------------|-(12)---------------|
||---7----------------|--3-------------|-10------------|-(10)---------------|
||o-------------------|----------------|---------------|--------------------|
||--------------------|----------------|---------------|--------------------|


  D5                  F5               A5
   E  E  H     E  E    H     Q.    E    E  E H.
|-------------------|----------------|---------------|
|-------------------|----------------|---------------|
|-12-10-12----12-10-|-10----12----12-|-12-10-9-------|
|-------------------|----------------|---------------|
|-10--8-10----10--8-|--8-----7-----7-|--7--5-3-------|
|-------------------|----------------|---------------|
|
|  W                   W                W
|-------------------|----------------|---------------|
|-------------------|----------------|---------------|
|-------------------|----------------|---------------|
|--0----------------|--3-------------|--7------------|
|--0----------------|--3-------------|--7------------|
|--0----------------|--3-------------|--7------------|
|
|  W                   W                W
|-15----------------|-13-------------|-12------------|
|-10----------------|--6-------------|-10------------|
|--7----------------|--5-------------|--9------------|
|--7----------------|--3-------------|--7------------|
|-------------------|----------------|---------------|
|-------------------|----------------|---------------|


 1.                       2.
   +H         E  E  Q        H          H
|-----------------------||-------------------||
|----------------------o||-------------------||
|--(9)-------14-12-14---||--(9)-------/12----||
|-----------------------||-------------------||
|--(3)-------12-10-12--o||--(3)-------/10----||
|-----------------------||-------------------||
|
|  +W                       +W
|-----------------------||-------------------||
|----------------------o||-------------------||
|-----------------------||-------------------||
|--(7)------------------||--(7)--------------||
|--(7)-----------------o||--(7)--------------||
|--(7)------------------||--(7)--------------||
|
|  +Q    H.                  Q    H.
|-(12)--10--------------||-(12)--10----------||
|-(10)--10-------------o||-(10)--10----------||
|--(9)---7--------------||--(9)---7----------||
|--(7)---7--------------||--(7)---7----------||
|----------------------o||-------------------||
|-----------------------||-------------------||


 Interlude
  Bb5                              A5
   H.        Q       Q   Q  H      +H.        Q      Q     Q   H
|----------------|---------------|---------------|------------------|
|----------------|---------------|---------------|------------------|
|----------------|---------------|----------/12--|--12-----7---7----|
|----------/12---|--12---7--7----|-(7)-----------|------------------|
|----------------|---------------|---------------|------------------|
|-12-------------|---------------|---------------|------------------|
|
|  W                +W              W               +W
|----------------|---------------|---------------|------------------|
|----------------|---------------|---------------|------------------|
|----------------|---------------|---------------|------------------|
|--8-------------|--(8)----------|--7------------|--(7)-------------|
|--8-------------|--(8)----------|--7------------|--(7)-------------|
|--8-------------|--(8)----------|--7------------|--(7)-------------|
|
|  H.        Q      +W              W               +Q     H.
|-----------10---|-(10)----------|-10------------|-(10)----8--------|
|----------------|---------------|-10------------|-(10)--(10)-------|
|-----------10---|-(10)----------|---------------|------------------|
|--8--------(8)--|--(8)----------|--7------------|--(7)---(7)-------|
|--8--------(8)--|--(8)----------|--7------------|--(7)---(7)-------|
|----------------|---------------|---------------|------------------|


  F/D                              G5
  +H.        Q     Q    Q   H       +H.      Q     Q     Q    H
|---------------|----------------|--------------|------------------|
|---------------|----------------|--------------|------------------|
|-(7)------/14--|-14---12--12----|-(12)---------|------------------|
|---------------|----------------|-----------7--|--7---/12---12----|
|---------------|----------------|--------------|------------------|
|---------------|----------------|--------------|------------------|
|
|  W              +W                 W            +W
|---------------|----------------|--------------|------------------|
|---------------|----------------|--------------|------------------|
|---------------|----------------|--------------|------------------|
|--3------------|-(3)------------|---5----------|-(5)--------------|
|--0------------|-(0)------------|---5----------|-(5)--------------|
|--0------------|-(0)------------|---5----------|-(5)--------------|
|
|  W              +W                 W            +Q     H.
|--8------------|-(8)------------|---8----------|-(8)----6---------|
|--6------------|-(6)------------|---8----------|-(8)---(8)--------|
|--7------------|-(7)------------|--------------|------------------|
|--3------------|-(3)------------|---5----------|-(5)---(5)--------|
|--0------------|-(0)------------|---5----------|-(5)---(5)--------|
|---------------|----------------|--------------|------------------|


  Bb5                            A5
   H.        Q     Q   Q  H      +H.        Q     Q   Q  H
|---------------|--------------|---------------|--------------|
|---------------|--------------|---------------|--------------|
|---------------|--------------|----------/12--|-12---7--7----|
|----------/12--|-12---7--7----|-(7)-----------|--------------|
|---------------|--------------|---------------|--------------|
|-12------------|--------------|---------------|--------------|
|
|  W              +W              W              +W
|---------------|--------------|---------------|--------------|
|---------------|--------------|---------------|--------------|
|---------------|--------------|---------------|--------------|
|--8------------|-(8)----------|--7------------|-(7)----------|
|--8------------|-(8)----------|--7------------|-(7)----------|
|--8------------|-(8)----------|--7------------|-(7)----------|
|
|  W              +W              W              +W
|--6------------|-(6)----------|--5------------|-(5)----------|
|--6------------|-(6)----------|--5------------|-(5)----------|
|---------------|--------------|---------------|--------------|
|--8------------|-(8)----------|--7------------|-(7)----------|
|--8------------|-(8)----------|--7------------|-(7)----------|
|---------------|--------------|---------------|--------------|


  F/D                              G5
  +H.        Q     Q    Q   H       +H.      Q     Q     Q    H
|---------------|----------------|--------------|------------------|
|---------------|----------------|--------------|------------------|
|-(7)------/14--|-14---12--12----|-(12)---------|------------------|
|---------------|----------------|-----------7--|--7---/12---12----|
|---------------|----------------|--------------|------------------|
|---------------|----------------|--------------|------------------|
|
|  W              +W                 W            +W
|---------------|----------------|--------------|------------------|
|---------------|----------------|--------------|------------------|
|---------------|----------------|--------------|------------------|
|--3------------|-(3)------------|---5----------|-(5)--------------|
|--0------------|-(0)------------|---5----------|-(5)--------------|
|--0------------|-(0)------------|---5----------|-(5)--------------|
|
|  W              +W                 W            +Q     H.
|--5------------|-(5)------------|---5----------|-(5)--------------|
|--6------------|-(6)------------|--------------|--------8---------|
|--5------------|-(5)------------|---7----------|-(7)----7---------|
|--3------------|-(3)------------|---5----------|-(5)----5---------|
|--0------------|-(0)------------|---5----------|-(5)----5---------|
|---------------|----------------|--------------|------------------|


  Bb5                              A5
  Gtrs III, IV
   H.       Q      W                H.      Q      W
|--------------|-----------------|-------------|-----------------|
|--------------|-----------------|-------------|-----------------|
|--------------|-----------------|-------------|-----------------|
|--8--------8--|---8-------------|--7-------7--|---7-------------|
|--8--------8--|---8-------------|--7-------7--|---7-------------|
|--8--------8--|---8-------------|--7-------7--|---7-------------|
|
| Gtr II
|  H.       Q      Q    Q   H       W              Q    Q   H
|--------------|-----------------|-------------|-----------------|
|----------17--|--17---18--20----|-------------|--20---18--17----|
|--------------|-----------------|-------------|-----------------|
|--------------|-----------------|-------------|-----------------|
|--------------|-----------------|-------------|-----------------|
|--------------|-----------------|-------------|-----------------|
|
|  W              +W                W             +W
|--------------|-----------------|-------------|-----------------|
|-11-----------|-(11)------------|-10----------|-(10)------------|
|-10-----------|-(10)------------|--9----------|--(9)------------|
|--8-----------|--(8)------------|--7----------|--(7)------------|
|--------------|-----------------|-------------|-----------------|
|--------------|-----------------|-------------|-----------------|


  F/D                          G5
   W           W                W              +W
|-----------|----------------|--------------|---------------|
|-----------|----------------|--------------|---------------|
|-----------|----------------|--------------|---------------|
|--3--------|--3-------------|--5-----------|--(5)----------|
|--0--------|--0-------------|--5-----------|--(5)----------|
|--0--------|--0-------------|--5-----------|--(5)----------|
|
|  W           Q    H     Q     H.       Q     +H      H
|-----------|----------------|--------------|---------------|
|-----------|----------------|--------------|---------15----|
|-14--------|-14---15----17--|-15-------17--|-(17)----------|
|-----------|----------------|--------------|---------------|
|-----------|----------------|--------------|---------------|
|-----------|----------------|--------------|---------------|
|
|  W          +W                W              +W
|-----------|----------------|--------------|---------------|
|--6--------|-(6)------------|--8-----------|--(8)----------|
|--7--------|-(7)------------|--7-----------|--(7)----------|
|--7--------|-(7)------------|--5-----------|--(5)----------|
|-----------|----------------|--------------|---------------|
|-----------|----------------|--------------|---------------|


  Bb5                              A5
   H.       Q      W                H.      Q      W
|--------------|-----------------|-------------|-----------------|
|--------------|-----------------|-------------|-----------------|
|--------------|-----------------|-------------|-----------------|
|--8--------8--|---8-------------|--7-------7--|---7-------------|
|--8--------8--|---8-------------|--7-------7--|---7-------------|
|--8--------8--|---8-------------|--7-------7--|---7-------------|
|
|  H.       Q      Q    Q   H       W              Q    Q   H
|--------------|-----------------|-------------|-----------------|
|----------17--|--17---18--20----|-------------|--20---18--17----|
|--------------|-----------------|-------------|-----------------|
|--------------|-----------------|-------------|-----------------|
|--------------|-----------------|-------------|-----------------|
|--------------|-----------------|-------------|-----------------|
|
|  W              +W                W         
Добавлено: 10.07.2012
Другие материалы по этой песне:

Страница создана 04.04.2012
http://primanota.ru/swallow-the-sun/hope-chords.htm
Привет, Гость.
Предлагаем пройти революционный курс по гитаре.
Подарок от PrimaNota.Ru, забирай!