PrimaNota.ru - самый крупный в мире бесплатный архив песенных текстов, аккордов, табулатур и нот


Supergrass - Beautiful People - текст песни, таба, видео

Регистрация Запомнить меня
Войти через:  Facebook Google Twitter Vk Yandex Mail.ru

Supergrass - Beautiful People - текст песни, таба, видео

Печатать
Просмотров: 100
BEAUTIFUL PEOPLE
BY SUPERGRASS
FROM THE ALBUM SUPERGRASS
1999
--------------------------

Tabbed by AAuuddee@aol.com


INTRO:

-----12-------
--7--14--5s---
--6------4s--- repeat
--------------
--------------
--------------


VERSE1:

-----12-------
--7--14--5s---
--6------4s--- repeat
--------------
--------------
--------------

  Cm  F   Cm  F
--3---1---3---1---
--4---1---4---1---
--5---2---5---2---
--5---3---5---3---
--3---3---3---3---
--3---1---3---1---

-----
--7--*
--6-- repeat
-----
-----
-----

* another guitar plays this in the background:
--12--
------(repeat)
------
------
------
------

-----12-------
--7--14--5s---
--6------4s--- repeat
--------------
--------------
--------------

  Cm  F   Cm  F
--3---1---3---1---
--4---1---4---1---
--5---2---5---2---
--5---3---5---3---
--3---3---3---3---
--3---1---3---1---


CHORUS:

  Bm  D   G   Bb  Cm  F  Gm
--2---2---3---1---3---1---3---
--3---3---0---3---4---1---3---
--4---2---0---3---5---2---3---
--4---0---0---3---5---3---5---
--2-------2---1---3---3---5---
--2-------3---1---3---1---3---

  Bm  D   G   Bb  Cm  F   Cm  F
--2---2---3---1---3---1---3---1---
--3---3---0---3---4---1---4---1---
--4---2---0---3---5---2---5---2---
--4---0---0---3---5---3---5---3---
--2-------2---1---3---3---3---3---
--2-------3---1---3---1---3---1---


VERSE2:

-----13------
--8--15--6s--*
--7------5s--
-------------
-------------
-------------

*another guitar plays this sometimes in the background:
--13--
------(repeat)
------
------
------
------

 C#m  F# C#m  F#
--4---2---4---2---
--5---2---5---2---
--6---3---6---3---
--6---4---6---4---
--4---4---4---4---
--4---2---4---2---


CHORUS:

  Bm  D   G   Bb  Cm  F  Gm
--2---2---3---1---3---1---3---
--3---3---0---3---4---1---3---
--4---2---0---3---5---2---3---
--4---0---0---3---5---3---5---
--2-------2---1---3---3---5---
--2-------3---1---3---1---3---

  Bm  D   G   Bb  Cm  F   Cm  F  Cm   F
--2---2---3---1---3---1---3---1---3---1---
--3---3---0---3---4---1---4---1---4---1---
--4---2---0---3---5---2---5---2---5---2---
--4---0---0---3---5---3---5---3---5---3---
--2-------2---1---3---3---3---3---3---3---
--2-------3---1---3---1---3---1---3---1---


ENDING:

-----12-------
--7--14--5s---*
--6------4s--- repeat
--------------
--------------
--------------

* another guitar plays this in the background:
--12--
------(repeat)
------
------
------
------

--12---
--14---
-------
-------
-------
-------

ENJOY!!
     
Добавлено: 06.09.2013
Другие материалы по этой песне:
  • Аккорды и текст

Страница создана 12.03.2012
http://primanota.ru/supergrass/beautiful-people-chords.htm
Привет, Гость.
Предлагаем пройти революционный курс по гитаре.
Подарок от PrimaNota.Ru, забирай!