PrimaNota.ru - самый крупный в мире бесплатный архив песенных текстов, аккордов, табулатур и нот


Supergrass - Eon - аккорды и текст, видео

Регистрация Запомнить меня
Войти через:  Facebook Google Twitter Vk Yandex Mail.ru

Supergrass - Eon - аккорды и текст, видео

Печатать
Просмотров: 51
Новый альбом группы 'Черный Кузнец' по культовому сериалу 'Сверхъестественное'!
Eon
Supergrass
EON     -       Supergrass

Intro:
e|---/---/---/---/---/---/---/---/----/
B|---/---/---/---/---/---/---/---/----/
G|---/7--/7--/6--/5--/5--/4--/2--/2--s/
D|--7/7--/6--/5--/5--/4--/3--/2--/2--s/
A|---/---/---/---/---/---/---/---/----/
E|---/---/---/---/---/---/---/---/----/

e|---/---/---/---/---/---/------/
B|7--/7--/5--/5--/5--/3--/2--2-s/
G|7--/7--/6--/5--/5--/4--/2--2-s/
D|7--/6--/5--/5--/4--/3--/2--2-s/
A|---/---/---/---/---/---/------/
E|---/---/---/---/---/---/------/

    D/A     D/Ab  A7       Am7   D9      Dm6    A     [4x]
e|----/----/----/----/----/----/----/----/
B|7---/7---/5---/5---/5---/3---/2---/2--s/
G|7---/7---/6---/5---/5---/4---/2---/2--s/
D|7---/6---/5---/5---/4---/3---/2---/2--s/
A|0---/0---/0---/0---/5---/5---/0---/0---/
E|----/----/----/----/----/----/----/----/

A -   A/Ab -   A/F# -  F7M  +5 -   D -  
Am6/Eb - Dm -
A -   A/Ab -   A/F# -  F7M  +5 -   D -  
Am6/Eb - Dm 


A           A/Ab                              
   I kno -        w 
You're out there
A/F#          F7M  +5                              
      We sa -          w 
             D      D                      
A shooting    star 
    Am6/Eb                                   
We         don't know what you done
        Dm                   A              
You're     near for a sta -     r 


A           A/Ab                             
   But no -       w 
We know it, 
A/F#          F7M  +5                              
      We do -          n't 
              D      D                    
Know who you    are 
    Am6/Eb                                   
We         don't know what you done
        Dm                  A              
You're     near for a sta -    r 


A               A/Ab                          
   We're slo -        w - 
Ly fading, 
A/F#            F7M  +5                            
      You glo -          w 
           D       D                      
Is almost     gone 
    Am6/Eb                                   
We         don't know what you done
        Dm                  A              
You're     near for a sta -     r 


Outro:
    D/A     D/Ab  A7       Am7   D9      Dm6    A         [4x]
e|----/----/----/----/----/----/----/----/
B|7---/7---/5---/5---/5---/3---/2---/2--s/
G|7---/7---/6---/5---/5---/4---/2---/2--s/
D|7---/6---/5---/5---/4---/3---/2---/2--s/
A|0---/0---/0---/0---/5---/5---/0---/0---/
E|----/----/----/----/----/----/----/----/





D/A     x00232
D/Ab    x00132 = F#+sus2/Ab
A7      x0x020
Am7     x02010
D9      x54530
Dm6/B   x23431
A       x02220
A/Ab    4x2220
A/F#    2x2220
F7M  +5 103220
D       xx0232
Am6/Eb  xx1212
Dm      xx0231
Добавлено: 30.05.2018
Другие материалы по этой песне:
  • Аккорды и текст

Страница создана 30.04.2012
http://primanota.ru/supergrass/eon-chords.htm
Привет, Гость.
Предлагаем пройти революционный курс по гитаре.
Подарок от PrimaNota.Ru, забирай!