PrimaNota.ru - самый крупный в мире бесплатный архив песенных текстов, аккордов, табулатур и нот


Sungha Jung - Return - таба, видео

Регистрация Запомнить меня
Войти через:  Facebook Google Twitter Vk Yandex Mail.ru

Sungha Jung - Return - таба, видео

Печатать
Просмотров: 207
Return  
Lee Seung Gi                                    
Sungha Jung
(Capo 2)
yuji812

                             ^     ^     ^     ^  ^     ^                 
     H        Q    E  S S    E  E  E  E  E  E  E  E     W                 
E||-------------------2-4-|--5--9--4--5--2--4--5-----|-------------------|
B||-----------------------|--7-----5-----3--------5--|--2----------------|
G||-----------------------|-----------------------6--|--1----------------|
D||-----------------------|--------------------------|--0----------------|
A||-----------------------|--5-----4-----2-----0-----|-------------------|
E||-----------------------|--------------------------|--0----------------|


  ^                ^                                        
  E  S S E  S S E  S E  E  S    E  E  Q     E   S  E  E  S  
------------0-0--------------|--------0---------------2--2-|
-------------------3-3--2----|-----------------------------|
--2--2-2-----------4-------2-|------------------1h-2-------|
---------2-------------------|-----2-----------------------|
--0--------------------------|-----------------------------|
----------------4------------|--2----------(2)-------------|


  E  E  E  S S E  S E    E  S    E  E  Q    E  S S S E  S  
------------------------------|--------0------------------|
-----0--0----0------0--2g3--2-|----------------0----------|
-----------2------2-----------|------------------2---1--2-|
--0---------------------------|-----2---------------------|
------------------------------|--0----------0-------------|
---------------0--------------|--------------------4------|


                ^                                   ^     
  E  E  E.   S  E  S E  E  S      E  S E  E  S Q    Q     
-----------------------------|---------------------------|
-----------------------------|---------------------------|
--------2-------1--1-1-------|----1--1-1-----------------|
-----2------(2)-2-------2--2-|------------4--4------2----|
----------------4------------|--4g5----L-------5----4----|
--2--------------------------|---------------------------|


  ^           ^                                         
  E  S Q    S E  S E  E  S    E  S E  E  S E  E  E  E   
---------------------------|---------------------0-----|
---------------------------|-------2--3--2-0-----------|
--------------1------------|--2--2---------------------|
--4--0-0----L-2--2-2-----2-|---------------------------|
--2-----------4-------4----|--5---------------2-----2--|
---------------------------|---------------0-----------|


                                                     ^           
  E  E  E  E  E  S S  E   S  S     E  S S S S S S E  S S S E  S  
--------0------------(0)--------|-------------0-0---------------|
--------0------------(0)--------|--------------------3-3---2----|
--2-----------x-------1---------|--2--2-2------------4--------2-|
--------------2-------2---------|--2--2-----2-------------------|
-----2-----2--2--2-2--2---2-(2)-|--0------x--------------x------|
--------------0--0-0--0---0-(0)-|---------x-------4------x------|


        ^                                                         
  E  E  E.   S  E  S  S S E  S    E  E  S S S S S S S S S   E  S  
--------0-----------------2--2-|---------------------------------|
--------0----------------------|-----0--0-----0-------0---2g3--2-|
--------2----------1h-2--------|------------2-------2----------2-|
-----2--2---(2)----------------|--0-------0----------------------|
------------------------x------|------------------2-----x--------|
--2-------------2-------x------|----------------0-------x--------|


        ^                            ^                         
  E  E  E.  S E  S S S E  S    E  E  E   S   S  E  S S S E  S  
--------0-------------------|---------------------------------|
--------2--------0----------|---------------------------------|
--------2----------2---1--2-|--------2----------1--1-1--------|
-----2------2---------------|-----2--2--(2)-(2)-2--------2--2-|
--0-----------0-------------|-----------(x)-----4------x------|
---------------------4------|--2--------(x)------------x------|


                  ^      ^         ^             ^                
    E  S S S E  S E  S S E  S S    E  S S S E  S E  S S S E   S   
--------------------------------|--------------------------------|
--------------------------------|----------------0--0-0----------|
----1--1-1----------------------|----------------2--------2------|
-------------4--4-4--4-4-2--2-2-|--4--0-0------0-1-----------(1)-|
--4g5----L-x------5--5-5-4--4-4-|--2------x-2-----------x--------|
-----------x------x------x------|---------x-------------x--------|


                                     ^                 ^           
  E  S S S E  E  S S S E   S   S     E  S S S S S S E  S S S E  S  
----------------------------------|-------------0-0---------------|
-----------2--0--0-0-0-0---0------|--------------------3-3---2----|
--2--1-2---2--1--1-1-1-1---1------|--2--2-2------------4--------2-|
-----------------0-0---0---0--(0)-|--2--2-----2-------------------|
---------x-------2-----2--(x)-(2)-|--0------x--------------x------|
--0------x----0--------0--(x)-----|---------x-------4------x------|


        ^                                                         
  E  E  E.   S  E  S  S S E  S    E  E  S S S S S S S S S   E  S  
--------0-----------------2--2-|---------------------------------|
--------0----------------------|-----0--0-----0-------0---2g3--2-|
--------2----------1h-2--------|------------2-------2----------2-|
-----2--2---(2)----------------|--0-------0----------------------|
------------------------x------|------------------2-----x--------|
--2-------------2-------x------|----------------0-------x--------|


        ^                            ^                         
  E  E  E.  S E  S S S E  S    E  E  E   S   S  E  S S S E  S  
--------0-------------------|---------------------------------|
--------2--------0----------|---------------------------------|
--------2----------2---1--2-|--------2----------1--1-1--------|
-----2------2---------------|-----2--2--(2)-(2)-2--------2--2-|
--0-----------0-------------|-----------(x)-----4------x------|
---------------------4------|--2--------(x)------------x------|


                 ^    ^                         ^                
    E  S E  E  S Q    E  S  S     E  S S S E  S E  S S S E   S   
-------------------------------|--------------------------------|
-------------------------------|----------------0--0-0----------|
----1--1-1---------------------|----------------2--------2------|
------------4--4-4----2--2-(2)-|--4--0-0------0-1-----------(1)-|
--4g5----L-------5----4--4-(4)-|--2------x-2-----------x--------|
-----------------x----x--------|---------x-------------x--------|


                            ^                         ^          
  E  S S S E  E  S  S   S   Q        E  S S E  S S E  S E  E  S  
---------------------------(0)----|------------0-0--------------|
-----------2--0--0-(0)-(0)-(0)----|-------------------3-3--2----|
--2--1-2---2--1--1-(1)-----(1)----|--2--2-2-----------4-------2-|
-----------------0---------(0)----|--2------2-------------------|
---------x-----------------(2)----|--0--------------------------|
--0------x----0-------------------|----------------4------------|


  E  E  Q     E   S  E  E  S    E  E  S S S S S S S E    E  S  
--------0---------------2--2-|--------------------------------|
--------0--------------------|-----0--0-----0-------0--2g3--2-|
------------------1h-2-------|------------2-------2---------2-|
-----2-----------------------|--0-------0---------------------|
-----------------------------|------------------2-------------|
--2----------(2)-------------|----------------0---------------|


        ^                                                      
  E  E  E.  S E  S S S E  S    E  E  E   S   S  E  S S S E  S  
--------0-------------------|---------------------------------|
--------2--------0----------|---------------------------------|
--------2----------2---1--2-|--------2----------1--1-1--------|
-----2------2---------------|-----2--2--(2)-(2)-2--------2--2-|
--0-----------0-------------|-----------(x)-----4------x------|
---------------------4------|--2--------(x)------------x------|


                                                       ^              
    E  S S S E  S E   S   S  E  S  S     E  S S S E  S E  S S S E  S  
--------------------------------------|------------------------------|
--------------------------------------|------------------------------|
----1--1-1----------------------------|----------------1-------------|
-------------4--4-4--(4)-(4)-2--2-----|--4--0-0------0-2--2-2------2-|
--4g5----L-x------5--(5)-----4--4-(0)-|--2------x-2----4------x-4----|
-----------x--------------------x-----|---------x-------------x------|


  E  S E  E  S E  E  E  E     E  E  E  E  E  S S E  S S  
---------------------0-----|--------0-----0------0------|
-------2--3--2-0-----------|--------0-----0------3------|
--2--2---------------------|--2-----------2------2------|
---------------------------|--2-----------x------x--x---|
--5---------------2-----2--|-----2-----2--2--2-2-2--2-2-|
---------------0-----------|--------------0--0-0-0--0-0-|


  ^                 ^                   ^                       
  E  S S S S S S E  S S S E  S    E  E  E.   S  E  S  S S E  S  
-------------0-0---------------|--------0-----------------2--2-|
--0-----------------3-3---2----|--------0----------------------|
--2--2-2------------4--------2-|--------2----------1h-2--------|
--2--2-----2-------------------|-----2--2---(2)----------------|
--0------x--------------x------|------------------------x------|
---------x-------4------x------|--2-------------2-------x------|


                                          ^                    
  E  E  S S S S S S S S S   E  S    E  E  E.  S E  S S S E  S  
---------------------------------|--------0-------------------|
-----0--0-----0-------0---2g3--2-|--------2--------0----------|
------------2-------2----------2-|--------2----------2---1--2-|
--0-------0----------------------|-----2------2---------------|
------------------2-----x--------|--0-----------0-------------|
----------------0-------x--------|---------------------4------|


         ^                                            ^      ^         
  E  E   E    S   S  E  S S S E  S      E  S S S E  S E  S S E  S  S   
-----------------------------------|----------------------------------|
--------(0)------------------------|----------------------------------|
---------2-----------1--1-1--------|----1--1-1------------------------|
-----2---2---(2)-(2)-2--------2--2-|-------------4--4-4--4-4-2--2-----|
-------------(x)-----4------x------|--4g5----L-x------5--5-5-4--4-(0)-|
--2----------(x)------------x------|-----------x------x------x--------|


  ^             ^                                                  
  E  S S S E  S E  S S S E   S     E  S S S E  E  E  S E   S   S   
--------------------------------|----------------------0----------|
----------------0--0-0----------|-----------2--0--0--0-0---0------|
----------------2--------2------|--2--1-2---2--1--1--1-1---1------|
--4--0-0------0-1-----------(1)-|-----------------0----0---0--(0)-|
--2------x-2-----------x--------|---------x-------2----2--(x)-(2)-|
---------x-------------x--------|--0------x----0-------0--(x)-----|


                    ^                   ^                       
  E  S S S S S S E  S S S E  S    E  E  E.   S  E  S  S S E  S  
-------------0-0---------------|--------0-----------------2--2-|
--------------------3-3---2----|--------0----------------------|
--2--2-2------------4--------2-|--------2----------1h-2--------|
--2--2-----2-------------------|-----2--2---(2)----------------|
--0------x--------------x------|------------------------x------|
---------x-------4------x------|--2-------------2-------x------|


                                          ^                    
  E  E  S S S S S S S S S   E  S    E  E  E.  S E  S S S E  S  
---------------------------------|--------0-------------------|
-----0--0-----0-------0---2g3--2-|--------2--------0----------|
------------2-------2----------2-|--------2----------2---1--2-|
--0-------0----------------------|-----2------2---------------|
------------------2-----x--------|--0-----------0-------------|
----------------0-------x--------|---------------------4------|


        ^                                           ^      ^       
  E  E  E   S   S  E  S S S E  S      E  S S S E  S E  S S E  S S  
---------------------------------|--------------------------------|
---------------------------------|--------------------------------|
--------2----------1--1-1--------|----1--1-1----------------------|
-----2--2--(2)-(2)-2--------2--2-|-------------4--4-4--4-4-2--2-2-|
-----------(x)-----4------x------|--4g5----L-x------5--5-5-4--4-4-|
--2--------(x)------------x------|-----------x------x------x------|


  ^             ^                                                  
  E  S S S E  S E  S S S E   S     E  S S S E  E  E  S E   S   S   
--------------------------------|----------------------0----------|
----------------0--0-0----------|-----------2--0-------0---0------|
----------------2--------2------|--2--1-2---2--1--1--1-1---1------|
--4--0-0------0-1-----------(1)-|-----------------0--0-0---0--(0)-|
--2------x-2-----------x--------|---------x-------2----2--(x)-(2)-|
---------x-------------x--------|--0------x----0-------0--(x)-----|


  E  E  E   S   S  E  S S S E  S    E  E  E.  E  E.  E   S   S   
---------------------------------|------------0--0---0----------|
-------------------2--0-0--------|------------0--0---0--(0)-----|
----------------------------1----|--------1----------1--(1)-(1)-|
--4--x--4--(4)-----4-----------2-|--------2----------2--(2)-(2)-|
--5--x--5--(5)-(5)-5------x------|--4--4--4---------------------|
-----x-------------x------x------|------------------------------|


  E  S S S E  S E  S S S E  S    E  S S E  S S E  S S E   E    
------------------------------|---------0--0------------------|
------------------------------|---------0--0-0----------------|
----------------2--2-1--------|-------0-2--2-2----------------|
--4--0-0------0----------2----|--0--2---2--2-2----------------|
--2------x-2-----------x-2--2-|--0------0------2--2-2-4--(x)--|
---------x------0------x------|----------------x---------(0)--|


  Q    E  S S E  S S S E  S    E  E  E.  E  E  S E   S   S   
----------------------------|--------0---0--0--0-0----------|
--------------2--0-0--------|--------0---0--0--0-0--(0)-----|
-----------------------1----|--------1---1--1----1--(1)-----|
--4----4--4-4-4-----------2-|--------2-----------2--(2)-----|
--5----5--5-5-5------x------|--4--4------------------x--(0)-|
--------------x------x------|--x--x------------------x------|


                ^                ^                          
  E  S S S E  S E  S S S E  S    E  S S S E  S E  E  E  E   
------------------------------|----------------------0-----|
------------------------------|--2--0-0------0-------------|
----------------1-------------|--2--------2----------------|
--4--0-0------0-2--2-2------2-|----------------------------|
--2------x-2----4------x-4----|--5------x---------2-----2--|
---------x-------------x------|---------x------0-----------|


              ^              ^                ^          
  E  E  E  E  Q     Q        E  S S E  S S E  S E  E  S  
--------0-----0-----------|------------0-0--------------|
--------0-----0----(0)----|-------------------3-3--2----|
--2-----------1----(1)----|--2--2-2-----------4-------2-|
--------------0-----------|--2--2---2-------------------|
-----2-----2--2----(x)----|--0--------------------------|
--------------0----(x)----|----------------4------------|


  E  E  E  E  E  S  S S E  S    E  E  S S S S S S S S S   E  S  
--------0---------------2--2-|---------------------------------|
--------0-------------0------|-----0--0-----0-------0---2g3--2-|
-----------------1h-2-2------|------------2-------2----------2-|
-----2-----2----------2------|--0-------0----------------------|
----------------------x------|------------------2-----x--------|
--2-----------2-------x------|----------------0-------x--------|


        ^                            ^                          
  E  E  E.  S E  S S S E  S    E  E  E   S   S  E  S E  E   S   
--------0-------------------|----------------------------------|
--------2--------0----------|---------------------------0------|
--------2----------2---1--2-|--------2----------1--1-1-----(0)-|
-----2------2-2-------------|-----2--2--(2)-(2)-2--------------|
--0-------------------------|-----------(x)-----4--------------|
---------------------4------|--2--------(x)--------------------|


                       ^                         ^              
  E  S S S E  S E  S S E  S  S     E  S S S E  S E  S S S E  S  
--------------------------------|------------------------------|
--2--0-2---3--2-0---------------|----------------2--0--------0-|
--2----2------------------------|--2-------------2----2---1----|
-----------------------2--2-(2)-|-----4-4---4------------------|
--5------x------4------4--4-(4)-|--2------x-2--2--------x------|
---------x---------0-0-x--------|---------x------0------x------|


                ^                                  ^                          
  E  S  S  Q    H           H        Q    E  E     E  E    E  E  E  E  E  E   
-------------------------|----------------------|----------------------------|
-------------------------|----------------------|----------------------------|
--2--2-----1-------------|----------------------|----------------------1--2--|
-----2-(2)------4--------|--L--------L----L--2--|--0--2--2g4--2-----2--------|
-----x----------5--------|--L--------L----L-----|--2-------------------------|
--2--x-----0-------------|----------------------|----------------0-----------|


        ^     ^            ^           ^  ^                      
  E  E  E  E  Q.     E     E  E  E  E  E  Q.        Q    S  E.   
------------------------|--0---------------------|--------------|
------------------------|-----3--3--2------------|--------------|
--------1---------------|--------------2--1------|--2----4s-2---|
-----2-----2--4------4--|-----------------0------|--------------|
--------------5---------|--2--------------2------|--------------|
--2-----0---------------|--------------0--0------|--------------|


                              ^                   
  E  E  E  E  E  E  E  E      W                   
--------------0-----------|---------------------||
-----------0--------0-----|--(0)----------------||
--------2--------------2--|---2-----------------||
-----2-----------2--------|---2-----------------||
--0-----------------------|---0-----------------||
--------------------------|---------------------||




Duration Legend
---------------
W - whole
H - half
Q - quarter
E - 8th
S - 16th
T - 32nd
X - 64th
. - note dotted
|-n-|  - n-tuplets


Tablature Legend
----------------
L - tied note
x - dead note
g - grace note
(n) - ghost note
> - accentuded note
NH - natural harmonic
AH - artificial harmonic
TH - tapped harmonic
SH - semi harmonic
PH - pitch harmonic
h - hammer on
p - pull off
b - bend
br - bendRelease
pb - preBend
pbr - preBendRelease
brb - bendReleaseBend
\n/ - tremolo bar dip
\n - tremolo bar dive
-/n - tremolo bar Release up
/n\ - tremolo bar inverted dip
/n - tremolo bar return
-\n - tremolo bar Release down
S - shift slide
s - legato slide
/ -  slide into from below or out of upwards
\ -  slide into from above or out of downwards
~ - vibrato
W - wide vibrato
tr - trill
TP - tremolo picking
T - tapping
S - slap
P - pop
< - fade in
^ - brush up
v - brush down
Добавлено: 19.08.2013
Другие материалы по этой песне:

Страница создана 19.08.2013
http://primanota.ru/sungha-jung/return-chords.htm
Привет, Гость.
Предлагаем пройти революционный курс по гитаре.
Подарок от PrimaNota.Ru, забирай!