PrimaNota.ru - самый крупный в мире бесплатный архив песенных текстов, аккордов, табулатур и нот


Sungha Jung - Ugly - таба, видео

Регистрация Запомнить меня
Войти через:  Facebook Google Twitter Vk Yandex Mail.ru

Sungha Jung - Ugly - таба, видео

Печатать
Просмотров: 146
Sungha Jung- Ugly
Original by: 2NE1
Tabbed by: yuji812

     ^                                               ^                         
     E   E  E  Q    E   E  E     W                   E   E  E  Q    E   E  E   
D||---------------------------|-------------------|---------------------------|
B||------------0----0h--1--0--|--L----------------|------------0----0h--1--0--|
G||--2p--0--------------------|-------------------|--2p--0--------------------|
D||--0------0-----------------|-------------------|---------0-----------------|
G||--0------------------------|-------------------|---------------------------|
D||---------------------------|-------------------|--0------------------------|


                        ^                ^                                 
  H        Q    Q       E   E  E  Q.     E  E     E   E  E  Q.     E   E   
----------------0----|--2p--0---------------0--|--2p--0------------5p--4--|
--L--------0---------|--0---------0------0-----|------------0-------------|
---------------------|------------0------0-----|------------0-------------|
---------------------|---------0---------------|---------0----------------|
---------------------|-------------------------|--------------------------|
---------------------|--2----------------2-----|--2-----------------------|


                                      ^              
  E  E  E  Q    E  E   E     E  E  E  E   Q.     E   
-----0-----0-------5p--4--|-----0-----0h--2---------|
-----0-----0--------------|-----0-----3-------------|
----------------0---------|-----------2-------------|
--------------------------|----------------------0--|
--5--------5--------------|-------------------------|
--------------------------|--0--------0-------------|


  ^                                               ^                         
  E   E  E  Q    E   E  E     W                   E   E  E  Q    E   E  E   
---------------------------|-------------------|---------------------------|
------------0----0h--1--0--|--L----------------|------------0----0h--1--0--|
--2p--0--------------------|-------------------|--2p--0--------------------|
--0------0-----------------|-------------------|---------0-----------------|
--0------------------------|-------------------|---------------------------|
---------------------------|-------------------|--0------------------------|


                                         ^                                  
  H        Q    Q       E   E  E  Q.     E  E     E   E  E  Q    E  E   E   
----------------0----|--2p--0---------------0--|--2p--0-------------5p--4--|
--L--------0---------|--0---------0------0-----|------------0--------------|
---------------------|------------0------0-----|------------0----0---------|
---------------------|---------0---------------|---------0-----------------|
---------------------|-------------------------|---------------------------|
---------------------|--2----------------2-----|--2------------------------|


                                            ^                              
  E  E  E  Q    E  E   E     E  E  E  E  E  E   Q       H.           Q     
-----0-----0-------5p--4--|-----0-----0-----0h--2----|--L-----------------|
-----0-----0--------------|-----0-----3-----3--------|--L-----------------|
----------------0---------|-----------2-----2--------|--L-----------------|
--------------------------|--------------------------|--------------------|
--5--------5--------------|--------------------------|---------------x----|
--------------------------|--0--------0--------------|---------------x----|


  ^                                                                             
  Q    E  Q    E  E  E     E  E   E  E  E  E  E  E     E  E  E  E  E  E  E  E   
---------------------0--|---------------------------|--------------------------|
--0---------------------|-----1p--0--0-----------0--|-----------------------3--|
--0------------0--------|-----0---------2-----------|-----2-----------------2--|
---------------0--------|---------------------------|-----0-----------0--------|
--0----x--0-------x-----|--0------x-----0--0--x-----|--------x-----0-----x-----|
-------x----------x-----|---------x-----------x-----|--0-----x--0--------x-----|


                       ^                                                       
  E  E  E  E  E  E  E  E     E  E  E  Q    E  E  E     E  E  E  Q    E  E  E   
-----2--------------------|-------------------------|-------------------------|
-----------0-----------1--|-----0----------------1--|-----0-------------------|
-----------------2--------|-----0-----2----0-----0--|-----0-----2----0-----0--|
-----------------0-----2--|-----------2----2--------|-----------2----2--------|
--------x-----------x-----|--------x----------x-----|--------x----------x-----|
--0-----x--0--0-----x-----|--2-----x--2-------x-----|--2-----x--2-------x-----|


  E  E  E  Q    E  E  E     E  E  E  E  E   E  E  E    
-------------------------|----------------------------|
----------------0--------|--------0------------0--3p--|
-----2-----2----0-----2--|-----2--------0h--2---------|
-------------------------|--0--------0----------------|
--5-----x--5-------x-----|--------x------------x------|
--------x----------x-----|--------x------------x------|


  E  E  E  E  E  E  E  E     E  E   E  E  E  E  E  E   
--------------------------|---------------------------|
--0--------------------3--|-----1p--0--0-----------0--|
-----0-----------0-----0--|-----0---------2-----------|
--------------0-----------|---------------------------|
--0-----x--0--------x-----|--0------x-----0--0--x-----|
--------x-----------x-----|---------x-----------x-----|


  E  E  E  E  E  E  E  E     E  E  E  Q    E  E  E     E  E  E  Q    E  E  E   
--------------------------|-----2-----2----0-----2--|-----0-----2----0-----2--|
-----------------------3--|-----3-----3----3-----0--|-----0-----0----0-----0--|
-----2-----------------2--|-------------------------|-------------------------|
-----0-----------0--------|-------------------------|-------------------------|
--------x-----0-----x-----|--------x----------x-----|--------x----------x-----|
--0-----x--0--------x-----|--0-----x--0-------x--2--|--2-----x--2-------x-----|


  E  E  E  Q    E  E  E     E  E  E  Q    E  E  E     E  E  E  E  E  E   E  E   
-----0-----2----0-----5--|-----4-----2----0--------|--------0--------2h--5-----|
-----0-----0----0-----5--|-----5-----0----0-----0--|--------3-----3------------|
-------------------------|-------------------------|--2--2--2---------------0--|
-------------------------|-------------------------|--0------------------------|
--------x----------x-----|--5-----x--5-------x-----|--------x------------x-----|
--2-----x--2-------x-----|--------x----------x-----|--------x------------x-----|


  Q    E  Q    E  E    E     E  E  E  E  E  E  E  E   
--5------------------5g7--|--L--5-----5--4-----5--5--|
---------------3----------|-----3-----3--3-----------|
---------------0----------|--------------------------|
--------------------------|-----------------0--------|
--0----x--0-------x-------|--0-----x-----0-----x-----|
-------x----------x-------|--------x-----------x-----|


  E  E  E  E  E  E  E    E     E  E  E  E  E  E  E  E   
-----4-----------------5g7--|--L--5-----4-----------0--|
-----3-----------3----------|-----3-----3-----3-----0--|
-----2-----------2----------|-----------------2--------|
--------------0-------------|--------------------------|
--------x-----------x-------|--------x-----------x-----|
--0-----x--0--------x-------|--0-----x-----0-----x-----|


  E  E  E  E  E  E  E  E     E  E  E  Q    E  E  E   
-----2--0--2-----2--0--2--|-----2--0--2----------5--|
--------0-----------0-----|-----------0----0-----5--|
--------------------------|----------------0--------|
--------------------------|-------------------------|
--------x-----------x-----|--------x----------x-----|
--2-----x-----2-----x-----|--2-----x----------x-----|


                                          ^              
  E  E  E  E  E  S  S E  E     E  E  Q    E  E  E    E   
-----5-----5-----5s-7----7--|--L--5--5----5--5-----7g9--|
-----5-----5-----5s-7----7--|--L--7--7----7--7----------|
----------------------------|-------------0-------------|
----------------------------|-------------x-------------|
--5-----x-----5-------x--7--|--L-----x----7-----x-------|
--------x-------------x-----|--------x----------x-------|


    E  E  E  E  E   E  E  E     E  E  E  Q    E  E  E   
|---L------------------------|-------------------9--9--|
|------8--------7h--8-----7--|-----8-----8----8--8-----|
|*-----7--------7---------7--|-----7-----7-------------|
|*---------------------------|-------------------------|
|---0-----x--0---------x-----|--0-----x--0-------x-----|
|---------x------------x-----|--------x----------x-----|


  E  E  E  E  E  E  E  E     E  E  E  Q    E  E   E   
-----7-----------7--------|-----7-----7----------10--|
-----7--------9--7-----9--|-----7-----7----7------8--|
--------------7--------7--|----------------7---------|
--------------------------|--------------------------|
--------x-----------x-----|--------x----------x------|
--0-----x--0--------x-----|--0-----x--0-------x------|


             ^                          ^             
  E  E  Q    E  E  E   E     E  E  Q    E  E  E  E    
-----9----------------10--|--L--9--9-----------------|
-----8-------8--8------8--|--L--8--8----8--8-----8s--|
-------------0--7------9--|--L-----9----7------------|
-------------9------------|--------------------------|
--9-----x----9-----x---9--|--L-----x----9-----x------|
--------x----------x------|--------x----------x------|


                                        ^                
  E  E  E  E  E  E  E  E     E  E  Q    E  E  E    E     
--------0--------5-----5--|--L--5--5----5--5-----7g9---||
--5--5--5-----5--------7--|--L--7--7----7--7-----------||
--------------------------|---------------------------*||
--------------------------|--------x------------------*||
--5-----x--5--------x--7--|--L-----7----7-----x--------||
--------x-----------x-----|--------x----------x--------||


                          ^                                                  
  E  E  Q    Q    Q       Q    E  E  E  E  E  E     E  E  E  E  E  E  E  E   
--L--5--5----x---------|-------------------------|--------------------------|
--L--7--7----x---------|--0-------------0-----1--|-----0--------------0--0--|
-----------------------|--0-------------0--------|-----0-----0--2-----------|
-----------------------|-------------0-----------|-----------------0--------|
--L-----7----x----x----|--0----x--0--------x-----|--0-----x-----0-----x-----|
--------x---------x----|-------x-----------x-----|--------x-----------x-----|


                                                  ^                             
  E  E  E  E  E  E  E  E     E  E  E  E  E  E  E  E     E  E  E  Q    E  E  E   
--------------------------|-----2--------------------|-------------------------|
-----------------------3--|-----------0-----------1--|-----0----------------1--|
-----2-----------------2--|-----------------2--------|-----0-----2----0-----0--|
-----0-----------0--------|-----------------0-----2--|-----------2----2--------|
--------x-----0-----x-----|--------x-----------x-----|--------x----------x-----|
--0-----x--0--------x-----|--0-----x--0--0-----x-----|--2-----x--2-------x-----|


  E  E  E  Q    E  E  E     E  E   E  Q    E  E  E   
-------------------------|--------------------------|
-----0-------------------|--------------------------|
-----0-----2----0-----0--|-----0h--2--2----0-----2--|
-----------2----2--------|--------------------------|
--------x----------x-----|--5------x--5-------x-----|
--2-----x--2-------x-----|---------x----------x-----|


  E  E  E  E  E   E  E  E      E  E  E  E  E  E  E  E   
----------------------------|--------------------------|
--------0------------0--3p--|--0--------------------3--|
-----2--------0h--2---------|-----0-----------0-----0--|
--0--------0----------------|--------------0-----------|
--------x------------x------|--0-----x--0--------x-----|
--------x------------x------|--------x-----------x-----|


  E  E   E  E  E  E  E  E     E  E  E  E  E  E  E  E   
---------------------------|--------------------------|
-----1p--0--0-----------0--|-----------------------3--|
-----0---------2-----------|-----2-----------------2--|
---------------------------|-----0-----------0--------|
--0------x-----0--0--x-----|--------x-----0-----x-----|
---------x-----------x-----|--0-----x--0--------x-----|


  E  E  E  Q    E  E  E     E  E   E   Q    E  E  E     E  E  E  Q    E  E  E   
-----2-----2----0-----2--|-----0--(0)--2----0-----2--|-----0-----2----0-----5--|
-----3-----3----3-----0--|-----0--(0)--0----0-----0--|-----0-----0----0-----5--|
-------------------------|---------------------------|-------------------------|
-------------------------|---------------------------|-------------------------|
--------x----------x-----|---------x-----------x-----|--------x----------x-----|
--0-----x--0-------x--2--|--2------x---2-------x-----|--2-----x--2-------x-----|


  E  E  E  Q    E  E  E     E  E  E  E  E  E   E  E   
-----4-----2----0--------|--------0--------2h--5-----|
-----5-----0----0-----0--|--------3-----3------------|
-------------------------|--2--2--2---------------0--|
-------------------------|--0------------------------|
--5-----x--5-------x-----|--------x------------x-----|
--------x----------x-----|--------x------------x-----|


  Q    E  E  E  E  E    E     E  E  E  E  E  E  E  E   
--5-------------------5g7--|--L--5-----5--4-----5--5--|
----------------3----------|-----3-----3--3-----------|
----------------0----------|--------------------------|
-------------0-------------|-----------------0--------|
--0----x--0--------x-------|--0-----x-----0-----x-----|
-------x-----------x-------|--------x-----------x-----|


  E  E  E  E  E  E  E    E     E  E  E  E  E  E  E  E   
-----4-----------------5g7--|--L--5--5--4-----------0--|
-----3-----------3----------|-----3-----3-----3-----0--|
-----2-----------2----------|-----------------2--------|
--------------0-------------|--------------------------|
--------x-----------x-------|--------x-----------x-----|
--0-----x--0--------x-------|--0-----x-----0-----x-----|


  E  E   E  E  E  E   E  E     E  E   E  Q    E  E  E   
-----2p--0--2-----2p--0--2--|-----2p--0--2----------5--|
-----0------0-----0------0--|-----0------0----0-----5--|
----------------------------|-----------------0--------|
----------------------------|--------------------------|
---------x------------x-----|---------x----------x-----|
--2------x-----2------x-----|--2------x----------x-----|


                                          ^              
  E  E  E  E  E  S  S E  E     E  E  Q    E  E  E    E   
-----5-----5-----5s-7----7--|--L--5--5----5--5-----7g9--|
-----5-----5-----5s-7----7--|--L--7--7----7--7----------|
----------------------------|-------------0-------------|
----------------------------|-------------x-------------|
--5-----x-----5-------x--7--|--L-----x----7-----x-------|
--------x-------------x-----|--------x----------x-------|


    E  E  E  E  E   E  E  E     E  E  E  Q    E  E  E   
|---L------------------------|-------------------9--9--|
|------8--------7h--8-----7--|-----8-----8----8--8-----|
|*-----7--------7---------7--|-----7-----7-------------|
|*---------------------------|-------------------------|
|---0-----x--0---------x-----|--0-----x--0-------x-----|
|---------x------------x-----|--------x----------x-----|


  E  E  E  E  E  E  E  E     E  E  E  Q    E  E   E   
-----7-----------7--------|-----7-----7----------10--|
-----7--------9--7-----9--|-----7-----7----7------8--|
--------------7--------7--|----------------7---------|
--------------------------|--------------------------|
--------x-----------x-----|--------x----------x------|
--0-----x--0--------x-----|--0-----x--0-------x------|


             ^                          ^             
  E  E  Q    E  E  E   E     E  E  Q    E  E  E  E    
-----9----------------10--|--L--9--9-----------------|
-----8-------8--8------8--|--L--8--8----8--8-----8s--|
-------------0--7------9--|--L-----9----7------------|
-------------9------------|--------------------------|
--9-----x----9-----x---9--|--L-----x----9-----x------|
--------x----------x------|--------x----------x------|


                                        ^                
  E  E  E  E  E  E  E  E     E  E  Q    E  E  E    E     
--------0--------5-----5--|--L--5--5----5--5-----7g9---||
--5--5--5-----5--------7--|--L--7--7----7--7-----------||
--------------------------|---------------------------*||
--------------------------|--------x------------------*||
--5-----x--5--------x--7--|--L-----7----7-----x--------||
--------x-----------x-----|--------x----------x--------||


  E  E  Q    Q    E  E     E  Q    E  Q    E  E     H        Q    E  E   
--L--5--5---------------|------------------------|-----------0----------|
--L--7--7----0----------|-------------0-------0--|--L-------------0-----|
------------------2--2--|-----0------------2--0--|--L----------------2--|
------------------------|----------0-------------|----------------------|
--L-----7---------------|--0---------------------|----------------------|
--------x---------------|------------------------|----------------------|


                     ^                      ^               ^              
  E  Q    E  Q    E  E     H        E  Q    E     E   Q     Q    Q     E   
------------------------|----------------------|--------------------------|
-------------0-------0--|--L--------8--8----8--|-----10----10----8----12--|
-----0------------2--0--|--L----------------0--|------0----------0--------|
----------0-------------|----------------------|--------------------------|
------------------------|----------------------|--9---------9-------------|
--0---------------------|----------------------|--------------------------|


   ^                   ^                                                      
   Q.     E  E  E   E  E     E    Q    Q    E  E   E     H        Q    E  E   
-----------------------5--|-----5g7----7----5-----12--|--7-------------------|
--10---------8--8\--L--5--|-----5g7----7----7---------|--7--------0----------|
---0------0--0--0---------|---------------------------|----------------2--2--|
--------------------------|---------------------------|----------------------|
---9----------------------|--5---------5-------x------|--7-------------------|
--------------------------|--------------------x------|----------------------|


  E  E  E  E  Q    E  E     E  E  E   Q     E  E   E   
-------------------------|-----------------12---------|
--------------0-------0--|-----8-----10-----------10--|
-----0--------0----2--0--|-----0------0---------------|
-----------0-------------|----------------------------|
--0-----x-----0----x-----|--0-----x---0--------x------|
--------x----------x-----|--------x------------x------|


  E  E  E  E  E  E  E  E     E  E  E  E  E  E  E  E   
--------------------------|--------------------------|
-----8--------0--------0--|--------------8--8-----8--|
-----0--------------2-----|--------------0--0-----0--|
-----------0-----0--0-----|-----0--------------------|
--------x-----------x-----|--------x-----------x-----|
--0-----x-----0-----x-----|--0-----x--0--------x-----|


  E   E  E   Q    E  E   E      Q    E  E  E  E  E  E   
----------------------------|-----------------------5--|
-----10-----10----8-----12--|--10----------8--8-----5--|
------0------0----0---------|---0----------0--0--------|
----------------------------|--------------------------|
--9------x---9-------x------|---9----x--9--------x-----|
---------x-----------x------|--------x-----------x-----|


  E     E   E   E  E   E   E   E     E  E  E  E  E  E   E  E   
-----5g12--12--12--L\--7--(7)--7--|-----5--5--5--5--5s--4--5--|
-----5g12--12--12--L\--7--(7)--7--|---------------------------|
----------------------------------|---------------------------|
----------------------------------|---------------------------|
--5----------------------------x--|---------------------------|
-------------------------------x--|---------------------------|


            ^          ^                               
  Q    E    H          E     Q    E  E    E  E  E  E   
----------<>7--------<>5--|--L---------------------9--|
----------<>7--------<>5--|--L----0-----7g8--8--8--8--|
----------<>7--------<>5--|--L----0--0----0--0--------|
---------------------<>5--|--L----0--0----------------|
--------------------------|-------x-------------x-----|
--------------------------|-------x-------------x-----|


    E  E  E  E  E   E  E  E     E  E  E  Q    E  E  E   
|---L------------------------|-------------------9--9--|
|------8--------7h--8-----7--|-----8-----8----8--8-----|
|*-----7--------7---------7--|-----7-----7-------------|
|*---------------------------|-------------------------|
|---0-----x--0---------x-----|--0-----x--0-------x-----|
|---------x------------x-----|--------x----------x-----|


  E  E  E  E  E  E  E  E     E  E  E  Q    E  E   E   
-----7-----------7--------|-----7-----7----------10--|
-----7--------9--7-----9--|-----7-----7----7------8--|
--------------7--------7--|----------------7---------|
--------------------------|--------------------------|
--------x-----------x-----|--------x----------x------|
--0-----x--0--------x-----|--0-----x--0-------x------|


             ^                          ^             
  E  E  Q    E  E  E   E     E  E  Q    E  E  E  E    
-----9----------------10--|--L--9--9-----------------|
-----8-------8--8------8--|--L--8--8----8--8-----8s--|
-------------0--7------9--|--L-----9----7------------|
-------------9------------|--------------------------|
--9-----x----9-----x---9--|--L-----x----9-----x------|
--------x----------x------|--------x----------x------|


                                        ^                
  E  E  E  E  E  E  E  E     E  E  Q    E  E  E    E     
--------0--------5-----5--|--L--5--5----5--5-----7g9---||
--5--5--5-----5--------7--|--L--7--7----7--7-----------||
--------------------------|---------------------------*||
--------------------------|--------x------------------*||
--5-----x--5--------x--7--|--L-----7----7-----x--------||
--------x-----------x-----|--------x----------x--------||


  E  E  E  E   H          
--L--5--5--L\-----------||
--L--7--7--L\-----------||
------------------------||
------------------------||
--L-----7--L\-----------||
--------x---------------||




Duration Legend
---------------
W - whole
H - half
Q - quarter
E - 8th
S - 16th
T - 32nd
X - 64th
. - note dotted
|-n-|  - n-tuplets


Tablature Legend
----------------
L - tied note
x - dead note
g - grace note
(n) - ghost note
> - accentuded note
NH - natural harmonic
AH - artificial harmonic
TH - tapped harmonic
SH - semi harmonic
PH - pitch harmonic
h - hammer on
p - pull off
b - bend
br - bendRelease
pb - preBend
pbr - preBendRelease
brb - bendReleaseBend
\n/ - tremolo bar dip
\n - tremolo bar dive
-/n - tremolo bar Release up
/n\ - tremolo bar inverted dip
/n - tremolo bar return
-\n - tremolo bar Release down
S - shift slide
s - legato slide
/ -  slide into from below or out of upwards
\ -  slide into from above or out of downwards
~ - vibrato
W - wide vibrato
tr - trill
TP - tremolo picking
T - tapping
S - slap
P - pop
< - fade in
^ - brush up
v - brush down
Добавлено: 03.10.2013
Другие материалы по этой песне:

Страница создана 03.10.2013
http://primanota.ru/sungha-jung/ugly-chords.htm
Привет, Гость.
Предлагаем пройти революционный курс по гитаре.
Подарок от PrimaNota.Ru, забирай!