PrimaNota.ru - самый крупный в мире бесплатный архив песенных текстов, аккордов, табулатур и нот


Sungha Jung - Love Story - таба, видео

Регистрация Запомнить меня
Войти через:  Facebook Google Twitter Vk Yandex Mail.ru

Sungha Jung - Love Story - таба, видео

Печатать
Просмотров: 253
Уроки эстрадного вокала в Санкт-Петербурге

Title: Love Story

Artist: Sungha Jung

Arranged by: Sungha Jung

Tabbed by: Ryan R. Gonzales

Location: Rosario, Batangas - Philippines

Band: http://www.youtube.com/watch?v=dY0_cK4tskI

Tuning: e B G D A E (Standard Tuning)



        PM PM PM PM PM PM PM       PM PM PM PM PM PM PM  
     E  E  E  E  E  E  E  E     E  E  E  E  E  E  E  E   
E||--------0-----0-----------|--------0-----0-----------|
B||-----------3-----3-----3--|-----------3-----3-----3--|
G||-----2--------------2-----|-----2--------------2-----|
D||--4-----------------------|--4-----------------------|
A||--------------------------|--------------------------|
E||--------------------------|--------------------------|


     PM PM PM PM PM PM PM       PM PM PM PM PM PM PM  
  E  E  E  E  E  E  E  E     E  E  E  E  E  E  E  E   
--------0-----0-----------|--------0-----0-----------|
-----------3-----3-----3--|-----------3-----3-----3--|
-----2--------------2-----|-----2--------------2-----|
--2-----------------------|--2-----------------------|
--------------------------|--------------------------|
--------------------------|--------------------------|


     PM PM PM PM PM PM PM       PM PM PM PM PM PM PM  
  E  E  E  E  E  E  E  E     E  E  E  E  E  E  E  E   
--------0-----0-----------|--------0-----0-----------|
-----------3-----3-----3--|-----------3-----3-----3--|
-----4--------------4-----|-----4--------------4-----|
--4-----------------------|--4-----------------------|
--------------------------|--------------------------|
--------------------------|--------------------------|


     PM PM PM PM PM PM PM       PM PM PM PM PM PM PM                            
  E  E  E  E  E  E  E  E     E  E  E  E  E  E  E  E     E  E  E  E  Q    E  E   
--------0-----0-----------|--------0-----0-----------|-------------------------|
-----------3-----3-----3--|-----------3-----3-----3--|--3-----3-----3-------3--|
-----2--------------2-----|-----2--------------2-----|-----2-----2-------2-----|
--5-----------------------|--5-----------------------|--0-----------0----------|
--------------------------|--------------------------|-------------------------|
--------------------------|--------------------------|-------------------------|


  E   E  E  E  E  E  E  E     E   E  E  E  E  E  E  E   
------------0--------------|---------------------------|
--2h--3-----------3-----3--|--2h--3-----3--------3--3--|
---------2-----------2-----|---------0--------0--------|
--0------------0-----------|---------------------------|
---------------------------|---------------------------|
---------------------------|--3------------3-----------|


                                  PM PM PM PM PM PM PM  
  E   E  E  E  E  E  E   E     E  E  E  E  E  E  E  E   
------------0---------------|--------0-----0-----------|
--2h--3-----------3--2h--3--|--0--------3-----3-----3--|
---------0------------------|--------------------4-----|
----------------------------|-----4--------------------|
----------------------------|--2-----------------------|
--3------------3------------|--------------------------|


                                       PM PM PM PM PM  
  E  E  E  E  E   E  E  E     E  E  E  E  E  E  E  E   
---------------------------|--------------0-----------|
--------3--3--3s--2--2-----|--------0--------3-----3--|
---------------------------|--2--------0--------0-----|
-----4------------------0--|-----0--------------------|
--2------------------------|--------------------------|
---------------------------|--3-----------------------|


     PM PM PM PM PM                                     
  E  E  E  E  E  E   E   E     E  E  E  E  E  E  E  E   
--------0-----0-------------|--------------------------|
-----------3-----3--(3)--3--|--3-----3--3--------3--3--|
-----0--------------(0)-----|-----2-----------2--------|
---------------------x------|--0-----------0-----------|
----------------------------|--------------------------|
--3-------------------------|--------------------------|


  E   E  E  E  E  E   E   E     E   E  E  E  E  E  E  E   
------------0----------------|---------------------------|
--2h--3-----------3--(3)--3--|--2h--3-----3--------3--3--|
---------2-----------(2)-----|---------0--------0--------|
--0------------0------x------|---------------------------|
-----------------------------|---------------------------|
-----------------------------|--3------------3-----------|


                                   PM PM PM PM PM PM PM  
  E   E  E  E  E  E   E   E     E  E  E  E  E  E  E  E   
------------0----------------|--------0-----0-----------|
--2h--3-----------3---2h--3--|--0--------3-----3-----3--|
---------0-----------(0)-----|--------------------4-----|
---------------------(0)-----|-----4--------------------|
-----------------------------|--2-----------------------|
--3------------3------x------|--------------------------|


  E  E  E  E  E   E   E   E     E  E  E  E  E  E  E  E   
-----------------------------|--------------------------|
--------3--3--3s--2---2------|--------0--------------2--|
---------------------(0)-----|--2--------------2--------|
-----4---------------(0)--0--|-----2--------2-----2-----|
--2-------------------x------|--0--------0--------------|
-----------------------------|--------------------------|


  E  E  E  Q    E   E   E     E  E   E   E  E  E   E   E   
---------------------------|------------------------------|
-----------2-------(2)--0--|--3-----(3)--3---------3---3--|
--------2-------2--(2)-----|--------(0)-----------(0)-----|
-----2-------------(2)-----|-----0--(0)--------0--(0)-----|
--0-----------------x------|------------------------------|
---------------------------|--3------x------3------x------|


  E   E   E   E  E  E   E   E     E  E   E   E  E  E   E   E   
--------------0----------------|---------0--------------------|
--2h--3--(3)--------3--(3)--3--|--3--3---3------3--3---3---3--|
---------(0)-----------(0)-----|--------(4)-----------(4)-----|
---------(2)-----------(2)-----|--------(4)-----------(4)-----|
--0-------x------0------x------|--2------x---2---------x------|
-------------------------------|------------------------------|


   E    E    E   Q    E   E   E     E  E   E   E   E   E   E    E    
---5----3--------2--------2---0--|--2--0---2---0---2----------------|
--(3)--(3)--(3)-----------3------|--------(3)-----(3)-----(3)---3---|
------------(2)-------2--(2)-----|--------(0)-----(0)-----(0)--(0)--|
---0---------x---0-------(0)-----|------------------------(0)-------|
---------------------------------|-------------------------x--------|
--------------------------x------|--3------x-------3---3------------|


   E    E    E   E  E  E   E   S  S    E  E   E   Q    E   E   E   
---0----0---(0)--0-------------2s-3-|--L--2---2--------2---2------|
--(3)--(3)--(3)--------3--(3)-------|--------(3)-------3--(3)-----|
------------(0)-----------(0)-------|--------(4)-------4--(4)-----|
------------(2)-----------(2)-------|--------(4)----------(4)-----|
---0---------x------0------x--------|--2------x---2--------x---2--|
------------------------------------|-----------------------------|


  E  E  E  E  E   E    E    E      E  E   E   E  E  E   E   E   
--------3--2------0---(0)-------|---------3------2--0---0------|
-----3-----------(3)--(0)-------|--3--3--(3)-----------(3)-----|
-----4---------------------(0)--|--------(2)-----------(2)-----|
-----4-----------------x--------|--0------x---0---------x---0--|
--L-----x-----2-----------------|------------------------------|
--------------------------------|------------------------------|


  E   E    E   E  E  E   E   E     E  E   E   E  E  E   E   E   
------0----0------2------0------|---------0------2------0------|
--3--(3)--(3)--3-----3--(3)-----|--3-----(3)--3--------(3)-----|
-----(2)--(2)-----------(2)-----|--------(0)-----------(0)-----|
-----------x------0-------------|--------(2)-----------(2)-----|
-------------------------x---0--|--0--0---x------0--0---x---0--|
--------------------------------|------------------------------|


  E  E   E   E  E  E   E   E     E  E   E   E  E  E   E   E   
-----0---0------2------0------|---------0------2------0------|
--3-----(3)--3-----3--(0)-----|--3-----(3)--3--------(3)-----|
--------(0)-------------------|--------(4)-----------(4)-----|
--------(2)-------------------|--------(4)-----------(4)-----|
--0------x------0------x---0--|--2--2---x------2--2---x---2--|
------------------------------|------------------------------|


  E  E   E   E  E  E   E   E     E   E    E   E  E  E   E   E   
---------0------2------0------|-----------0------2------2------|
--3-----(3)--3--------(3)-----|--3---3---(3)--3--------(3)--3--|
--------(4)-----------(4)-----|-----(0)--(0)-----------(0)-----|
--------(4)-----------(4)-----|--------------------------------|
--2--2---x------2--2---x---0--|-------------------------x------|
------------------------------|--3---3----x------3--3----------|


                                   PM PM PM PM PM PM PM  
   E   E   E   E  E  E  Q       E  E  E  E  E  E  E  E   
---2---0---2---0--2----------|--------0-----0-----------|
--(3)-----(3)-----3-----3----|-----------3-----3-----3--|
----------(0)-----------2----|-----2--------------2-----|
----------(2)----------------|--0-----------------------|
---0-------x------0----------|--------------------------|
-----------------------------|--------------------------|


     PM PM PM PM PM                                         
  E  E  E  E  E  E   E   E     E  E   E   E  E  E   E   E   
--------0-----0-------------|------------------------------|
-----------3-----3--(3)-----|--3------3---3--------(3)--3--|
-----2--------------(2)--2--|-----2--(2)--------2--(2)-----|
--0------------------x------|--0------x------0------x------|
----------------------------|------------------------------|
----------------------------|------------------------------|


   E   E   E   E  E  E   E   E     E   E   E   E  E  E  E  E   
---------------0----------------|-----------------------------|
---2h--3--(3)--------3--(3)--3--|--2h--3-------3--------3--3--|
--(2)-----(2)-----------(2)-----|---------(0)--------0--L--L--|
---0-------x------0------x------|---------(0)-----------------|
--------------------------------|-----------------------------|
--------------------------------|--3-------x------3-----x-----|


  E   E   E   E  E  E   E    E     E  E   E   E  E  E   E   E   
--------------0-----------------|---------0------0-------------|
--2h--3-------------3--(2)h--3--|--0-----(3)--3-----3-------3--|
---------(0)-----------(0)------|--------(4)------------4------|
---------(0)-----------(0)------|-----4--(4)-----------(4)-----|
------------------------x-------|--2------x------2------x------|
--3-------x------3--------------|------------------------------|


  E  E   E   E  E   E   E   E     E  E   E   E  E  E   E   E   
-------------------------------|------------------------------|
--------(3)--3--3s--2--(2)-----|---------0---------0---L---2--|
--------(4)------------(0)-----|--2-----(2)--------2--(2)--2--|
-----4--(4)------------(0)--0--|-----2--(2)-----2-----(2)-----|
--2------x--------------x------|--0------x---0---------x------|
-------------------------------|------------------------------|


  E  E   E   S  S E  E   E    E      E  E   E   E  E  E   E   E   
-------------2s-3----2---2--------|------------------------------|
---------------------0--(0)-------|--3-----(3)--3---------3---3--|
---------2--------------(0)--(0)--|--------(0)-----------(0)-----|
-----2--(2)-----------------------|-----0--(0)--------0--(0)-----|
--0------x--------0------x----0---|------------------------------|
----------------------------------|--3------x------3------x------|


  E   E   E   E  E  E   E   E     E  E   E   E  E  E   E   E   
--------------0----------------|---------0--------------------|
--2h--3--(3)--------3--(3)--3--|--3--3---3------3--3---3---3--|
---------(0)-----------(0)-----|--------(4)-----------(4)-----|
---------(2)-----------(2)-----|--------(4)-----------(4)-----|
--0-------x------0------x------|--2------x---2---------x------|
-------------------------------|------------------------------|


   E    E    E   Q    E   E   E     E  E   E   E   E   E   E    E    
---5----3--------2--------2---0--|--2--0---2---0---2----------------|
--(3)--(3)--(3)-----------3------|--------(3)-----(3)-----(3)---3---|
------------(2)-------2--(2)-----|--------(0)-----(0)-----(0)--(0)--|
---0---------x---0-------(0)-----|------------------------(0)-------|
---------------------------------|-------------------------x--------|
--------------------------x------|--3------x-------3---3------------|


   E    E    E   E  E  E   E   S  S    E  E   E   Q    E   E   E   
---0----0---(0)--0-------------2s-3-|--L--2---2--------2---2------|
--(3)--(3)--(3)--------3--(3)-------|--------(3)-------3--(3)-----|
------------(0)-----------(0)-------|--------(4)-------4--(4)-----|
------------(2)-----------(2)-------|--------(4)----------(4)-----|
---0---------x------0------x--------|--2------x---2--------x---2--|
------------------------------------|-----------------------------|


  E  E  E  E  E   E    E    E      E  E   E   E  E  E   E   E   
--------3--2------0---(0)-------|---------3------2--0---0------|
-----3-----------(3)--(0)-------|--3--3--(3)-----------(3)-----|
-----4---------------------(0)--|--------(2)-----------(2)-----|
-----4-----------------x--------|--0------x---0---------x---0--|
--L-----x-----2-----------------|------------------------------|
--------------------------------|------------------------------|


  E   E    E   E  E  E   E   E     E  E   E   E  E  E   E   E   
------0----0------2------0------|---------0------2------0------|
--3--(3)--(3)--3-----3--(3)-----|--3-----(3)--3--------(3)-----|
-----(2)--(2)-----------(2)-----|--------(0)-----------(0)-----|
-----------x------0-------------|--------(2)-----------(2)-----|
-------------------------x---0--|--0--0---x------0--0---x---0--|
--------------------------------|------------------------------|


  E  E   E   E  E  E   E   E     E  E   E   E  E  E   E   E   
-----0---0------2------0------|---------0------2------0------|
--3-----(3)--3-----3--(0)-----|--3-----(3)--3--------(3)-----|
--------(0)-------------------|--------(4)-----------(4)-----|
--------(2)-------------------|--------(4)-----------(4)-----|
--0------x------0------x---0--|--2--2---x------2--2---x---2--|
------------------------------|------------------------------|


  E  E   E   E  E  E   E   E     E   E    E   E  E  E   E   E   
---------0------2------0------|-----------0------2------2------|
--3-----(3)--3--------(3)-----|--3---3---(3)--3--------(3)--3--|
--------(4)-----------(4)-----|-----(0)--(0)-----------(0)-----|
--------(4)-----------(4)-----|--------------------------------|
--2--2---x------2--2---x---0--|-------------------------x------|
------------------------------|--3---3----x------3--3----------|


   E   E   E   E   E    E    E   E     E  E   E   E  E  E   E   E   
---2---0---2---0---2----------------|---------3------2--0---0------|
--(3)-----(3)-----(3)--(3)---3------|--3--3--(3)-----------(3)-----|
----------(0)-----(0)--(0)--(0)--0--|--------(2)-----------(2)-----|
----------(2)----------------x------|--0------x---0---------x---0--|
---0-------x-------0----0-----------|------------------------------|
------------------------------------|------------------------------|


  E   E    E   E  E  E   E   E     E  E   E   E  S S E   E   E   
------0----0------2------0------|---------0------2---2---0------|
--3--(3)--(3)--3-----3--(3)-----|--3-----(3)--3---------(3)-----|
-----(2)--(2)-----------(2)-----|--------(0)------------(0)-----|
-----------x------0-------------|--------(2)------------(2)-----|
-------------------------x---0--|--0--0---x------0---0---x---0--|
--------------------------------|-------------------------------|


  E  E   E   E  E  E   E   E     E  E   E   E  E  E   E   E   
---------0------5------0------|---------0------2------0------|
-----3--(3)--3--------(0)-----|--3-----(3)--3--------(3)-----|
--------(0)-------------------|--------(4)-----------(4)-----|
--------(2)-------------------|--------(4)-----------(4)-----|
--0------x---0--0--0---x---0--|--2--2---x------2--2---x---2--|
------------------------------|------------------------------|


  E  E   E   E  E  E   E   E      E    E    E    E    E   E   E   E   
---------0------2------0------|---2----0----2----0----2-------2------|
--3-----(3)--3--------(3)-----|--(3)--(3)--(3)--(3)--(3)-----(3)--3--|
--------(4)-----------(4)-----|------------(0)---------------(0)-----|
--------(4)-----------(4)-----|--------------------------------------|
--2--2---x------2--2---x---0--|-------------------------------x------|
------------------------------|---3---------x---------3---3----------|


   E   E   E   E   E   E  Q        E  E   E   E  E  E   E   E   
---2---0---2---0---2------------|---------0-------------0------|
--(3)-----(3)------3------3~----|--------(0)-----7-----(0)-----|
----------(0)-------------2~----|-----7--(7)--7-----7--(7)--7--|
----------(2)-------------------|--0------x------0------x------|
---0-------x-------0------------|------------------------------|
--------------------------------|------------------------------|


  E  E   E   E  E  E   E   E     E  E   E   E  E  E   E   E   
---------0-------------0------|-----------------------0------|
--------(0)-----7--7--(0)-----|--------(0)-----7-----(0)-----|
-----7--(7)--7--------(7)-----|--6--7--(7)--7-----7--(7)--7--|
--0------x------0-----(0)--0--|------------------------------|
------------------------------|------------------------------|
-----------------------x------|--8------x------8------x------|


  E  E   E   E  E  E  E  E     E  E   E   E  E  E   E   E   
---------0------------------|----------------0-------------|
--------(0)--------------0--|--8------7--------------------|
-----7--(7)--7--6--7--6-----|-----7--(7)--7-----7--(7)--7--|
----------------------------|------------------------------|
----------------------------|------------------------------|
--8------x------8-----x-----|--7------x------7------x------|


  E  E  E  E  E  E  E  E     E  E  E  E  E  E  E  E   
--------------------------|--0-----------------------|
-----------0--------------|-----------------0--0-----|
--6--7--6--------0-----0--|-----7--7--6--6--------2--|
--------------7-----4-----|--------------------------|
--------------------------|--------x-----x-----x-----|
--7-----x-----7-----x-----|--6-----------------------|


  E   E  E  E  E   E  E  E     Q    E  E  E   E    E    E    
---------------2p--0--------|-------------------------------|
-------------------------2--|----------3--------------------|
--2p--0--0------------0-----|---------------------(0)-------|
------------4---------------|----------------(0)-------(0)--|
--0------x-----0------------|--2----------L-----------------|
----------------------------|-------------------------------|


   ^                                                  
   Q.      Q    E   E  E     E  E  E  E  E  E  E  E   
-----------------------0--|--2--2--2--2--2--3--2--0--|
--(3)-----------2h--3-----|--3--3--3--3--3--3--------|
--(0)------0--------------|--------------------------|
--(0)---------------------|--0--0--------------------|
--(2)---------------------|--------------------------|
--(3)---------------------|--------------------------|


   ^                                                          
   Q.      E  E   E  E  E     E  S  S  E   Q     E    E   E   
--------------2p--0--------|---------------0-----------------|
--(2)-------------------2--|-----Ls-3---------------------3--|
--(2)------2---------0-----|----------(0)------------(0)-----|
--(2)----------------------|--------------------(0)----------|
--(0)----------------------|--2------------------------------|
---------------------------|---------------------------------|


   ^                                                       
                                           |----3----|     
   H          E    E   Q       E  E  E  E  Q    Q    Q     
----------------------------|--2--2--2--2--5----2----0----|
---L-------------------3----|--3--3--3--3-------3---------|
--(0)-------------(0)--0----|-----------------------------|
--(0)--------(0)------------|--0--0-----------------------|
--(2)-----------------------|-----------------------------|
--(3)-----------------------|-----------------------------|


  Q     E    E   E   E  E  E     E  E  E  E  E   E  E  E   
--0--------------2p--0--------|--------3-----2p--0--------|
---------------------------3--|-----3---------------3-----|
------------(2)---------------|---------------------------|
-------(2)--------------------|--0--0--0--0--0---0--0--0--|
--0---------------------0-----|---------------------------|
------------------------------|---------------------------|


  E  E  E  E  E  E  E  E     E  E  E  E  E  E  E  E   
--------0-----2-----0-----|--------0-----2-----0-----|
-----3-----3-----3--3-----|-----3-----3--3-----3-----|
--------------------------|--------------------------|
--0--0--0--0--0--0--0-----|--------------------------|
-----------------------0--|--0--0--0--0--0--0--0--0--|
--------------------------|--------------------------|


  E  E  E  E  E  E  E  E     E  E  E  E  E  E  E  E   
--------0-----2-----0-----|--------0-----2-----0-----|
-----3-----3--3-----0-----|--3-----3--3--------3-----|
--------------------------|--------------------------|
--------------------------|--------------------------|
--0--0--0--0--0--0--0--0--|--2--2--2--2--2--2--2--2--|
--------------------------|--------------------------|


  E  E  E  E  E  E  E  E     E  E  E  E  E  E  E  E     E  E  E  E  E  E  Q     
--------0-----2-----0-----|--------0-----2-----0-----|--------0-----2-----0----|
-----3-----3--------0-----|--3--3-----3--------------|--3--3-----3--3-----0----|
--------------------------|--------------------------|-------------------------|
--------------------------|--------------------------|-------------------------|
--2--2--2--2--2--2--2--0--|--------------------------|--0--0--0--0--0-----0----|
--------------------------|--3--3--3--3--3--3--3--3--|-------------------------|


  E  E   E   E  E  E   E    E       E    E    E    E    S  S  E    E   E   
--0--0---7------4--2---2----0---|---0----2----2----0----2s-4-(0)---2------|
--0--0--(0)-----------(0)--(0)--|--(0)--(0)--(0)--(0)--(0)---(0)--(0)-----|
--1--0----------------(0)-------|-----------------------------------------|
--------------------------------|-----------------------------------------|
--------------------------------|----------------------------------x---0--|
--0------x---0---------x--------|---0---------x---------0-----------------|


  E  E  E  E  E  E   E   E     E  E  E  E  E  E  E    E   
-----0--2-----4--4---2------|-----0--2-----4-----2-------|
--------------------(4)-----|----------------------------|
----------------------------|----------------------------|
----------------------------|----------------------------|
--2-----x--2---------x---2--|--2-----x--2-----2--x--2g4--|
----------------------------|----------------------------|


  E   E   E  E  E  E  E   E      E  E  E  E  E  E  E   E    
----------------4-------------|--------------4-------------|
--5-------7--5--------7-------|--5--5--7--5--------7-------|
-----(4)-----------------(4)--|-----------------------(0)--|
-----(6)-----------------(6)--|-----------------------(0)--|
--L-------x-----4--4--x-------|--4--L--x-----4--4--x---0---|
------------------------------|----------------------------|


  E  E   E    E   E  E   E   E     E  E  E  E  E   E  E  E   
--4--2---4----2---4------4------|--4--2--4--2--4p--2--x-----|
--2--2--(2)--(2)--2------2------|---------------------x-----|
--2-----(2)-------2------2---0--|---------------------x-----|
--------(2)-------------(2)-----|---------------------x-----|
--0--0---x--------0--0---x------|--2-----x-----2------x--2--|
--------------------------------|---------------------------|


  E  E  E  Q    E  E  E     E   E   E  E   E   S  S E  E   
-----0--0-------0--0-----|----------0----------2s-4----2--|
-----0--0-------0--0-----|------0---0---------------------|
-----1--1-------1--1-----|------1---1------1--------------|
--------2----------2-----|------2---2-----(2)-------------|
--------2----------2-----|-----(2)--2---------------x-----|
--0-----x--0-------x--0--|--L-------x--0------------------|


  E  E  E  Q     E    E   E     E   E    E   E   E   S  S E  E   
-----4-----------2----2------|------2----2----------------------|
-----------------4----4------|------4----4------(4)--5s-7----5--|
----------------(2)---2------|-----(2)---2------(2)-------------|
----------------(4)--(4)-----|-----(4)--(4)-----(4)-------------|
--2-----x--2----------x---2--|--L---x--------2------------x-----|
-----------------------------|----------------------------------|


  E   E   E  Q    E  E  E     E  E  E  Q    E  E  E   
------------------4--4-----|-----4--4-------4--------|
-----(5)----------5--5-----|-----5--5-------5--5-----|
------6-----------6--6-----|-----6--6-------6--6--0--|
------6--------------6-----|--------6----------6--0--|
--4-------x--4-------x--4--|--L-----x--4-------x-----|
---------------------------|-------------------------|


  E  E  E  E  E  E   E   E     E   E    E   S  S E   E    E   E   
--0--0-----0-----0-------0--|---------------0h-2--------------0--|
--2--2-----2-----2--(2)-----|------2---(2)-----------2-----------|
--2--------2--------(2)-----|------2---(2)-----------2---(2)-----|
--------------------(2)-----|-----(2)--(2)----------(2)--(2)-----|
--0-----x-----0------x------|--0--------x--------0--------x------|
----------------------------|------------------------------------|


  ^                  
  W                  
--0----------------||
--0----------------||
--1----------------||
--2----------------||
--2----------------||
--0----------------||




Duration Legend
---------------
W - whole
H - half
Q - quarter
E - 8th
S - 16th
T - 32nd
X - 64th
. - note dotted
|-n-|  - n-tuplets


Tablature Legend
----------------
L  - tied note
x  - dead note
g  - grace note
h  - hammer on
p  - pull off
s  - legato slide
~  - vibrato
^  - downstroke
PM - palm mute



echo "Hello World!";

for - Charlene Mae -

Play until your fingers bleed!


Добавлено: 01.05.2012
Другие материалы по этой песне:

Страница создана 22.02.2012
http://primanota.ru/sungha-jung/love-story-chords.htm
Привет, Гость.
Предлагаем пройти революционный курс по гитаре.
Подарок от PrimaNota.Ru, забирай!