PrimaNota.ru - самый крупный в мире бесплатный архив песенных текстов, аккордов, табулатур и нот


Sungha Jung - My Favorite Things - таба, видео

Регистрация Запомнить меня
Войти через:  Facebook Google Twitter Vk Yandex Mail.ru

Sungha Jung - My Favorite Things - таба, видео

Печатать
Просмотров: 129
Title: My Favorite Things
Artist: Sungha Jung
Album: 
Author: 


Track 1: Track 1

E|---------------------------|---------------------------|-0---0--0--0--0--0---0--0--0--0--|
B|-----5--7--7---------------|---------------------------|-2---2--2--2--2--2---2--2--2--2--|
G|-4-------------6---4---4---|-------4---4---4--6--4-----|-2---------------2---------------|
D|---------------------------|-2--4----------------------|-0---------------0---------------|
A|---------------------------|---------------------------|-2-------------------------------|
E|---------------------------|---------------------------|---------------------------------|


E|-0---0--0--0--0--0---0--0--0--0--|-0---0--0--0--0--0---0--0--0--0--|-------------------------|
B|-2---2--2--2--2--2---2--2--2--2--|-2---2--2--2--2--2---2--2--2--2--|-5-----------------------|
G|-2---------------2---------------|-2---------------2---------------|-4-----------------3-----|
D|-0---------------0---------------|-0---------------0---------------|-0-----------------2-----|
A|-2-------------------------------|-2-------------------------------|-------------------------|
E|-----------------2---------------|---------------------------------|-------4-----3-----2-----|


E|---------------------------|-----------------------------|-----2---------------------|
B|-----7---------------------|-----------------------------|-----3---------2-----------|
G|-----7---------6-----------|---------------6-------------|-4-----------------4-------|
D|-9-----------------9-------|-----9-----9-------9---------|---------------------------|
A|-----------------------0---|-9------9----------------0---|---------------------------|
E|-7---------7---7-----------|-7-------------7-------------|-3---------3---3-------3---|


E|-----------------------------|-----2---0-----------------|-----0-------------------|
B|---------------2-------------|-----3---------0---2-------|---------3---------------|
G|-----4-----4-------4---------|-4---0-----------------2---|-2-----------0-------0---|
D|-4------4--------------------|-5---4------0--------------|-----------------0-------|
A|-----------------------------|---------------------------|-------------------------|
E|-3-------------3---------0---|-0-------------------------|-2-----------3-----------|


E|---------------------------|-----2---0---------------|----------------------------------|
B|---------------0---2---3---|-5-----------2-----------|-----2-----2-----2----------------|
G|-----0-----2---------------|---------------------3---|-----2-----------2---------2------|
D|-4-------------------------|-5---------------2-------|------------------------0---------|
A|---------------------------|-4-----------------------|-2-------------------0--------0---|
E|-0------0--2---3---4-------|-------------2-----------|-----------------2----------------|


E|------------------------------------|---------------------------|-----------------------------|
B|----2-----2-----2-------------------|-----7---------------------|-----------------------------|
G|----2-----------2------------2------|-----7---------6-----------|---------------6-------------|
D|--------------------------0---------|-9-----------------9-------|-----9-----9-------9---------|
A|-2---------------------0--------0---|-----------------------0---|-9------9----------------0---|
E|-------------------2----------------|-7---------7---7-----------|-7-------------7-------------|


E|--------2--------------------|---------------------------|-----2---0-----------------|
B|--------3------2-------------|---------------2-----------|-----3---------0---2-------|
G|-4--------------------4------|--------4----------4-------|-4---0-----------------2---|
D|-----------------------------|-4-------------------------|-5---4------0--------------|
A|-----------------------------|---------------------------|---------------------------|
E|-3---3-----3---3---3-----3---|-3---3-----3---3---3---0---|-0-------------------------|


E|-----0-------------------|---------------------------|-----2---3---------------|
B|---------3---------------|---------------0---2---3---|-5-----------2-----------|
G|-2-----------0-------0---|-----0-----2---------------|---------------------3---|
D|-----------------0-------|-4-------------------------|-5---------------2-------|
A|-------------------------|---------------------------|-4-----------------------|
E|-2-----------3-----------|-0------0--2---3---4-------|-------------2-----------|


E|-----2-----2-----2---------------|---------------------------------|---------------------------------|
B|-----3-----3-----3---------------|-----5-----5-----5---------------|-----3-----3-----3---------------|
G|------------------------2--------|-----4-----4-----3------3--------|-----2-----2-----2---------------|
D|------------------------------0--|------------------------------0--|------------------------2--4--4--|
A|-2-------------------0-----0-----|-4-------------------0-----0-----|-2-------------------0-----------|
E|-----------------2---------------|-----------------2---------------|-----------------2---------------|


E|-------------------------|-------------------------|-----0-------0-------0---|-2---3---2---3-----------|
B|-0-------------0---------|-----2-------2-------2---|-3-------3-------3-------|-2---2---2---2-----------|
G|-0-------------0----2----|-4-------4-------4-------|-1-------1---1---1-------|---------------------2---|
D|-----4-----4-------------|-------------------------|-------------------------|-------------------------|
A|-------------------------|-------------------------|-------------------------|-0---0---0---0---0-------|
E|-3-------------3---------|-0-----------0-----------|-0-----------0-----------|-------------------------|


E|-3----3--3---2---------------|-------------------------------|------------------------------------|
B|-3----3--3---0---0--0--0--0--|-----5-----5-----5-------------|----5-----5-----5-------------------|
G|-2----2------0---0--0--0--0--|-----4-----4-----4------4------|----4-----4-----4------------4------|
D|-----------------0--0--0--0--|---------------------4---------|--------------------------4---------|
A|-0---------------------------|-5-----------------------------|-5---------------------0------------|
E|-----------------------------|-----------------5---------5---|-------------------5------------5---|


E|------------------------0--0--0--|-5---5--5--7--7--7---7-5-4--------|-9--------7-----5--4--------------|
B|-5----------------------0--0--0--|----------------------------5--7--|----7--5-----5--------5-----------|
G|-4-----------------3-------------|-2---2--2--4--4--4----------------|-------------------------4--2--0--|
D|-0-----------------2-------------|----------------------------------|----------------------------------|
A|---------------------------------|----------------------------------|----------------------------------|
E|-------4-----3-----2-------------|----------------------------------|----------------------------------|


E|-----------------------------|----------------------2---0---|-5--3--2-----3--2--------------------|
B|--------2------------2-------|-5---3-5-3------------3-------|----------5--------5--3--2--0--3--2--|
G|--------2------------2---0---|-3----------3-----------------|-------------------------------------|
D|-----0-----------------------|-4-------------4--------------|-------------------------------------|
A|-----------0-----0-----------|------------------2-----------|-------------------------------------|
E|-3---------0--3--------------|------------------------------|-0-----------------------------------|


E|-------------------------------------|-------------------------|-----2---3---6--0------------|
B|-0-----------------------------------|-------------0---2---3---|-5------------------7--------|
G|----2--------2-----------------------|-----0---2---------------|-----------------------------|
D|-------5--4-----5--4--2--0-----0--2--|-4-----------------------|--------------------4--------|
A|----------------------------4--------|-------------------------|--------------------0-----0--|
E|-------------------------------------|-------------------------|--------------------0-----0--|


E|-0---0--0--0--0--0---0--0--0--0--|-0---0--0--0--0--0-----0--0--0--0--|-0---0--0--0--0--0---0--0--0--0--|
B|-2---2--2--2--2--2---2--2--2--2--|-2---2--2--2--2--2--3--3--3--3--3--|-2---2--2--2--2--2---2--2--2--2--|
G|-2---------------2---------------|-2---------------2--3--3--3--3--3--|-2---------------2---------------|
D|-0---------------0---------------|-0---------------------------------|-0---------------0---------------|
A|-2-------------------------------|-2---------------------------------|-2-------------------------------|
E|---------------------------------|-----------------2--3--------------|---------------------------------|


E|-3--2-----------------------------------|-----------------------------|-----------------------------|
B|-------5--3--2--0-----------------------|-----------7-----------------|-----------------------------|
G|-------------------2--0-----------------|-----------7-----6-----------|---------------6-------------|
D|-------------------------4--2--0--------|-------9-------------9-------|-----9-----9-------9---------|
A|----------------------------------4--2--|-------------------------0---|-9------9----------------0---|
E|----------------------------------------|-2--7------------7-----------|-7-------------7-------------|


E|-----------------------6--7--|-4-----2-----------------------|---------------------------------|
B|-----7-----------------6--7--|-4-----2-----2--4--2---0-------|---------------------------------|
G|-4-------------6---4---------|-------------------4-----------|-----0------------6-----6--------|
D|---------------4---4---------|-------------------4-------0---|-----4------4-----7-----7-----0--|
A|-----------6-----------------|-0-----------------0-----------|-----5---5-----0-----------0-----|
E|-4---------------------------|-------------------------------|-0-------------------------------|


E|---------------------------|-------------------5-----3-----2---|---------------------9---|
B|--------2---7------7-------|-8-----7-----5---------------------|-----5---5---11--12------|
G|--------2---7------7-------|-------------------6-----4-----2---|-----4---4---9-----------|
D|-----0-----------------0---|-9-----7-----5---------------------|-------------------------|
A|---------------------------|-----------------------------------|-4-----------9-----------|
E|-2-------------7-----------|-0-----------------0---------------|-------------------------|


E|-10-9--12-10-9---------------------|-------------------------------------|----------------------------2--5--|
B|----------------12-10-8--7--8--10--|-8--7--10-8--7-----------------7--8--|-7--5--5--5--3--3--2--3--5--------|
G|-----------------------------------|----------------9--7--6--7--9--------|----------------------------------|
D|-----------------------------------|-------------------------------------|-0--------------------------------|
A|-----------------------------------|-0-----------------------------------|----------------------------------|
E|-0---------------------------------|-------------------------------------|----------------------------------|


E|-2---0---------------------|-------------------------------|---------------------------|
B|-0-------3---0-------------|-----3----------------3--2--0--|--------2---7------7-------|
G|-----------------2--0------|-0---0-------------0-----------|-2------2---7------7-------|
D|-----------------------4---|-0---4---4------4--------------|-----0-----------------0---|
A|---------------------------|-------------0-----------------|---------------------------|
E|-3-------------------------|-0-----------------------------|-2-------------7-----------|


E|---------------------------|-----------------------2-------|-----2-----2-----2---------------|
B|---------------0---2---3---|----5-----5------------2-------|-----3-----3-----3---------------|
G|-----0-----2---------------|----4-----4------------3-------|---------------------------------|
D|---------------------------|-------------------------------|---------------------------------|
A|---------------------------|-------------------------------|---------------------------------|
E|---------------------------|-------------------------------|---------------------------------|
Добавлено: 13.07.2015
Другие материалы по этой песне:

Страница создана 12.07.2012
http://primanota.ru/sungha-jung/my-favorite-things-chords.htm
Привет, Гость.
Предлагаем пройти революционный курс по гитаре.
Подарок от PrimaNota.Ru, забирай!