PrimaNota.ru - самый крупный в мире бесплатный архив песенных текстов, аккордов, табулатур и нот


Sufjan Stevens - Futile Devices - таба, видео

Регистрация Запомнить меня
Войти через:  Facebook Google Twitter Vk Yandex Mail.ru

Sufjan Stevens - Futile Devices - таба, видео

Печатать
Просмотров: 117
Song: FUTILE DEVICES
Artist: Sufjan Stevens
Album: "Age of Adz" [2010]

Tabbed by: Devin Miller

Tuning: Standard EADGBe

========================================================================

CAPO 9th Fret


e|-3-----------3---|-3-----------3---|-3-----------3---|-2-----------0---|
B|---1-----------1-|---1-----------1-|---1-----------1-|---1-----------1-|
G|-----2---2---2---|-----2---2---2---|-----2---2---2---|-----2---2---2---|
D|-2-----2---2-----|-2-----2---2-----|-0-----0---0-----|-0-----0---0-----|
A|-----------------|-----------------|-----------------|-----------------|
E|-----------------|-----------------|-----------------|-----------------|

LYRICS:

It's been a long, long time since I've memorized your face
It's been 4 hours now since I've wandered through your place
And when I sleep on your couch I feel very safe
And when you bring the blankets I cover up my face
I do............love you
I do............love you

And when you play guitar I listen to the strings buzz
The metal vibrates underneath your fingers
And when you crochet I feel mesmerized and proud
And I would say I love you by saying it out loud


Then, until the end:

e|-----------------|-----------------|-----------------|-----------------|
B|-----------------|-----------------|-----------------|-----------------|
G|-----0---0-------|-----0---0-------|-----2---2-------|-----2---2-------|
D|---2---2---2---2-|---0---0---0---0-|---2---2---2---2-|---2---2---2---2-|
A|-3-----------3---|-2-----------2---|-0-----------0---|-0-----------0---|
E|-----------------|-----------------|-----------------|-----------------|

It's hard, so I won't say it at all
And I won't stay very long
But you are the life I needed all along, I thank you
You, as my brother, although that sounds dumb
But words are futile devices

========================================================================
Добавлено: 07.09.2013
Другие материалы по этой песне:
  • Аккорды и текст

Страница создана 07.09.2013
http://primanota.ru/sufjan-stevens/futile-devices-chords.htm
Привет, Гость.
Предлагаем пройти революционный курс по гитаре.
Подарок от PrimaNota.Ru, забирай!