PrimaNota.ru - самый крупный в мире бесплатный архив песенных текстов, аккордов, табулатур и нот


Sufjan Stevens - Mistress Witch Of Mcclure Or The Mind That Knows Itself - таба, видео

Регистрация Запомнить меня
Войти через:  Facebook Google Twitter Vk Yandex Mail.ru

Sufjan Stevens - Mistress Witch Of Mcclure Or The Mind That Knows Itself - таба, видео

Печатать
Просмотров: 76
Tabbed by: Filip B
Hotmail, yourlocalnerd@hotmail.com
this is my first tab. Rate it please

I have not tabbed the trumpet solo.


Chords:
Bb: x13331
F: 133211
C: x32010
G: 320022





Banjo Capo 6 (Standard Open G tuning)
You tune the high G string until it sounds right.
You will figure out the struming by listening to the song
  
                  
               VERSE  (only banjo)

      C    F        Am 

D|----2----3----------------------0-------------------------|
B|----1----1---------1------------0--0-1-0--0---------------|
G|----0----2--0h2----2------------0--------2----------------|
D|----2----3---------2--0h2-------0-------------------------|
G|----0--------------0------------0-------------------------|



             CHORUS (banjo & guitar)

Banjo plays this


D|----3----2------0-----3-------------------------------|
B|----1----1------0-----2-------------------------------|
G|----2----0------0-----1-------------------------------|
D|----3----2------0-----0-------------------------------|
G|---------0------0-------------------------------------|



While the guitar enters and play

Bb , F , C , G

Before struming you pick the bass note.

Make this song your own and play with it alot.
Добавлено: 16.11.2013
Другие материалы по этой песне:
  • Аккорды и текст

Страница создана 16.11.2013
http://primanota.ru/sufjan-stevens/mistress-witch-of-mcclure-or-the-mind-that-knows-itself-chords.htm
Привет, Гость.
Предлагаем пройти революционный курс по гитаре.
Подарок от PrimaNota.Ru, забирай!