PrimaNota.ru - самый крупный в мире бесплатный архив песенных текстов, аккордов, табулатур и нот


Sufjan Stevens - Godll Neer Let You Down - таба, видео

Регистрация Запомнить меня
Войти через:  Facebook Google Twitter Vk Yandex Mail.ru

Sufjan Stevens - Godll Neer Let You Down - таба, видео

Печатать
Просмотров: 71
-------------------------------------------------------------------------------
			     God'll Ne'er Let You Down- Sufjan Stevens
-------------------------------------------------------------------------------
Tabbed by: Wade Gwin

Hello All. I took the main part from a lyrics site, but then listened to it to fill in
rest. (only chords were given on the lyrics site). Thank you to whoever posted the
Anyways, there is some walk ups, which I will display between each chord diagram (you 
figure out the rhythm).


Tuning:Eadgbe

Capo:4 (chords relative to capo)

Verse:

      Em             G              D(var.)    D/F#
e|--0---------3---------2-----2----------------------------------------------|
B|--0---------3---------3-----3----------------------------------------------|
G|--0---------0---------0-----2----------------------------------------------|
D|--2---------0---------0-----0----------------------------------------------|
A|--2---------2----2-0--0-----0----------------------------------------------|
E|--0--0-2-3--3--3------x-----2----------------------------------------------|

*Note: To play the D/F# chord, use your thumb to press down on the second fret.

Chorus:

      Am    Cmaj7  D(var.)   D
e|--0-----0-----2-----3------------------------------------------------------|
B|--1-----0-----3-----2------------------------------------------------------|
G|--2-----0-----0-----3------------------------------------------------------|
D|--2-----2-----0-----0------------------------------------------------------|
A|--0-----3-----0-----0------------------------------------------------------|
E|--x-----x-----x-----x------------------------------------------------------|


(There's a little noodling part played in the chorus that is barely heard, but is
transitioning from the Cmaj7 to the D(variation) chord; so that is what the next part 
The
part is played for the first transition, and the second riff is played over the second 
(in the chorus).)

Chorus (Lead)

          (First transition)              (Second transition)
e|---------------------|-----------------------|
B|---------------------|-----------------------|
G|---------------------|----2h4p2-0------------|
D|---------------------|------------2-0--------|
A|---0h2p0-------------|-----------------------|
E|----------3-0--------|-----------------------|

h= hammer-on
p= pull-off

Thank your savior, Jesus Christ, for Sufjan and his beautiful music.
Добавлено: 08.06.2013
Другие материалы по этой песне:
  • Аккорды и текст

Страница создана 08.06.2013
http://primanota.ru/sufjan-stevens/godll-neer-let-you-down-chords.htm
Привет, Гость.
Предлагаем пройти революционный курс по гитаре.
Подарок от PrimaNota.Ru, забирай!