PrimaNota.ru - самый крупный в мире бесплатный архив песенных текстов, аккордов, табулатур и нот


Suede - Heroin - текст песни, таба, видео

Регистрация Запомнить меня
Войти через:  Facebook Google Twitter Vk Yandex Mail.ru

Suede - Heroin - текст песни, таба, видео

Печатать
Просмотров: 144
Уроки эстрадного вокала в Санкт-Петербурге


				         SUEDE
					HEROIN

I did my best...hope you enjoy  


tabbed by suede@cheapnet.it
http://web.cheapnet.it/suede/index.html

the chords basically are E-B-A-B

H=harmonic
h=hammer
s=slide

Standard tuning

 bar1

e|-------7---4----------0-----------------------7---|
B|---------------------------------5---7------------|
G|--------------------------------------------------|
D|--------------------------------------------------|
A|--H7-----------------------H12--------------------|
E|-----------------H7-----------------------H7------|


bar2  0:15

e|-------7---4----------0------------------------7------|
B|----------------------------------5---7---------------|repeat 
G|----9------------4----------2--------------4----------|x 3
D|----9------------4----------2--------------4----------|
A|----7------------2----------0--------------2----------|
E|------------------------------------------------------| 


bar3  0:57                  bar4                bar5

e|-------------------4s7---|-------------------|---------------------|
B|----5-------5--7---------|----------7--9--5--|-------5--7--9--5----|
G|-------4h6---------------|--4--6h8-----------|--4h6----------------|
D|-------------------------|-------------------|---------------------|
A|-------------------------|-------------------|---------------------|
E|-------------------------|-------------------|---------------------| 


bar6  1:15 no more songs to sing...

    E                           B                      A
e|----4-----------4-----------|---2---------2--------|---0----------0--------|
B|----------5----------5------|-------4----------4---|---------2----------2--|
G|-------4-----4----4---------|----------4-----4-----|-----------2-----2-----|
D|----2-----------------------|-----4----------------|------2----------------|
A|----------------------------|---2------------------|---0-------------------|
E|----------------------------|----------------------|-----------------------| 


  B                           1:42 
e|---2----------2-----------|---------------------|
B|---------4----------4-----|-------repeat--------|
G|-----------4-----4--------|----bar3,4-and-5-----|
D|------4-------------------|---------------------|
A|---2----------------------|---------------------|
E|--------------------------|---------------------|

lyrics:
took me on a limb, you've taken everything
as the clouds come in, as the rain begins,rain begins
heroin,I'm out of it
no more songs to sing, no more love to bring
love to bring, as the rain begins
such a silly thing 
heroin, I'm out of it.



Добавлено: 21.08.2013
Другие материалы по этой песне:
  • Аккорды и текст

Страница создана 21.08.2013
http://primanota.ru/suede/heroin-chords.htm
Привет, Гость.
Предлагаем пройти революционный курс по гитаре.
Подарок от PrimaNota.Ru, забирай!