PrimaNota.ru - самый крупный в мире бесплатный архив песенных текстов, аккордов, табулатур и нот


Suede - Killer - аккорды и текст, видео

Регистрация Запомнить меня
Войти через:  Facebook Google Twitter Vk Yandex Mail.ru

Suede - Killer - аккорды и текст, видео

Печатать
Просмотров: 110
Killer
Suede
Song: Killer
Band: Suede
Single: Electricity
Year: 1999
Tabber: beranger80@hotmail.com
Tunning: DADGBE



Intro (0:00)
 
   Em        F#m          G        A
e---------------------------------------------|
b---------------------------------------------|
g---------------------------------------------|
d---------------------------------------------|
a---------------------0--------0-2--0---------|
d--2--2--4-5--4--4--5----5--5---------5-4--0--|



Verse (0:18)

Em  D      A
She is a natural killer
Em  D      A
She has a strange disguise
Em    D      A
And she is cold as vanilla
Em  D        A
She has that look in her eyes



Chorus (0:54)

A  D            G         D
She, she hasn't any feelings
A      D                  G   A  B
And she got nothing on her mind
Em  G    Em
She is a natural killer
Em   A               Em
She is the thorn in your side



Bridge (1:30)

   Em        F#m          G        A
e---------------------------------------------|
b---------------------------------------------|
g---------------------------------------------|
d---------------------------------------------|
a---------------------0--------0-2--0---------|
d--2--2--4-5--4--4--5----5--5---------5-4--0--|



Verse (1:48)

Em  D      A
She is a natural killer
Em  D      A
She has a strange disguise
Em    D      A
She as sweet as vanilla
Em  D            A
She has that look in her eyes



Chorus (2:23)

A  D            G         D
She, she hasn't any feelings
A      D                  G   A  B
And she got nothing on her mind
Em  G    Em
She is a natural killer
Em   A               Em
She is the thorn in your side



Bridge (2:59)

   Em        F#m          G        A
e---------------------------------------------|
b---------------------------------------------|
g---------------------------------------------|
d---------------------------------------------|
a---------------------0--------0-2--0---------|
d--2--2--4-5--4--4--5----5--5---------5-4--0--|



Chorus (3:18)

A  D            G         D
She, she hasn't any feelings
A      D                  G   A  B
And she got nothing on her mind
Em  G    Em
She is a natural killer
Em   A               Em
She is the thorn in your side



Outro (3:53)

   Em        F#m          G        A
e---------------------------------------------|
b---------------------------------------------|
g---------------------------------------------|
d---------------------------------------------|
a---------------------0--------0-2--0---------|
d--2--2--4-5--4--4--5----5--5---------5-4--0--|



Outro (4:20)

Em F#m   G     A
Thorn in your side
Em F#m   G     A
Thorn in your side
Em F#m   G     A
Thorn in your side
Добавлено: 24.11.2015
Другие материалы по этой песне:
  • Аккорды и текст

Страница создана 09.12.2013
http://primanota.ru/suede/killer-chords.htm
Привет, Гость.
Предлагаем пройти революционный курс по гитаре.
Подарок от PrimaNota.Ru, забирай!