PrimaNota.ru - самый крупный в мире бесплатный архив песенных текстов, аккордов, табулатур и нот


Suede - Outsiders - аккорды и текст, видео

Регистрация Запомнить меня
Войти через:  Facebook Google Twitter Vk Yandex Mail.ru

Suede - Outsiders - аккорды и текст, видео

Печатать
Просмотров: 122
Уроки эстрадного вокала в Санкт-Петербурге
Outsiders
Suede
Song: Outsiders 
Band: Suede
Album: Night Thoughts
Year: 2015
Tabber: beranger80@hotmail.com



Intro (0:05)

D#m B D#m B



Verse (0:26)
D#m
By the roadside shrine there's a place
B
Selling bouquets of cellophane
D#m
That's where they meet in this desolate place
         B
And the more they see the more they say
D#m                          B
Thrown like two winter roses into a broken vase



Prechorus (0:57)

       G#m                Bbm
They're playing the hand they play
G#m                      D#m  D#m/G
Caught in the game they made



Chorus (1:07)

F#                        C#
She puts her faith in the moment
    B    G#m
Outsiders
F#                        C#
He puts his faith in the moment
    D#m  F#
Outsiders



Verse (1:28)

D#m
And his clothes are covered in dew
B
As she writes in twisted sheets
D#m
Feel the pulse and the power of you
    B
And what you see isn't what's underneath



Prechrous (1:48)

G#m                        Bbm
They're playing the hand they play
G#m                     D#m   D#m/G
Caught in the game they made



Chorus (1:59)

F#                         C#
She puts her faith in the moment
   B        G#m
Outsiders
F#                         C#
He puts his faith in the moment
   D#m   Bbm
Outsiders



Solo (2:21)

   D#m                 B 
e-------------------|----------------------------------|
b--------7-6--------|----------------------------------|
g------------6------|---------8------------------------|
d----------------8--|----9-11---11-9-----9-11-9-8-6-8--|
a--6--6-------------|----------------------------------|
e-------------------|--7-------------------------------|

   D#m                 B
e-------------------|----------------------------------|
b--------7-6-----9--|----------------------------------|
g------------6------|---------8------------------------|
d-------------------|----9-11---11-9-----9-11-9-8-6-8--|
a--6--6-------------|----------------------------------|
e-------------------|--7-------------------------------|

2:41
G#m  Bbm  G#m  D#m D#m/G



Chorus (2:51)

F#                         C#
She puts her faith in the moment
   B       G#m
Outsiders
F#                         C#
He puts his faith in the moment
   D#m    Bbm
Outsiders



Chorus (3:12)

   F#       C#
Outsiders
B         
Outsiders
  F#       C#
Outsiders
D#m
Outsiders



Outro (3:33)

F#  C#  B   G#m

F#  C#  D#m  D#m/G   F#
Добавлено: 15.02.2016
Другие материалы по этой песне:
  • Аккорды и текст

Страница создана 15.02.2016
http://primanota.ru/suede/outsiders-chords.htm
Привет, Гость.
Предлагаем пройти революционный курс по гитаре.
Подарок от PrimaNota.Ru, забирай!