PrimaNota.ru - самый крупный в мире бесплатный архив песенных текстов, аккордов, табулатур и нот


Strokes - Reptilia perfect - бас-таба, видео

Регистрация Запомнить меня
Войти через:  Facebook Google Twitter Vk Yandex Mail.ru

Strokes - Reptilia perfect - бас-таба, видео

Печатать
Просмотров: 78


This song is awesome and the bass line is awesome. But the people who tried to tab it
have weird mental disorders or just don't know how to tune a bass so I'm just gonna
tab it the right way...if you play this along with the song it is perfect....so go
ahead sand play it...

Tabbed By : Mrs. Jolie
e-mail: moshmellow_123@yahoo.com

Tuning: standard EADG

 intro ( the not quantity isn't right... figure it out, I think it's  55)
G|---------------------------------------------------------------------------|
D|-99999999999999999999999999999999-------------------------------------------
A|---------------------------------------------------------------------------|
E|---------------------------------------------------------------------------|


Verse (play the seven riff...five times All the verses are the same except for one)
G|---------------------------------------------------------------------------|
D|---------------------------------------------------------------------------|
A|--------------------777777777777777777--------------------------------------
E|-777777777777777777---------------------------------------------------------


 Bridge (the eleven is NOT four ones and the 12 is not 1 2)
G|---------------------------------------------------------------------------|
D|---------55-5-77-55-5-777/1212-1111-99--------------------------------------
A|-00-045------------------------------99------------------------------------
E|---------------------------------------------------------------------------|

repeat that riff 3 times and then play this variation (the wait is over)

G|---------------------------------------------------------------------------|
D|----------5555-7777-5555-7777-5555-7777/1212-1111-99- ---------------------
A|-00-0-45--------------------------------------------99----------------------
E|---------------------------------------------------------------------------|


this is the solo and most of the last verse (now every time that I look at myself)
G|---------------------------------------------------------------------------|
D|99999999999999999-----------------------------------------------------------
A|-----------------7777777777777777-------------------------------------------
E|---------------------------------------------------------------------------|



G|---------------------------------------------------------------------------|
D|---------------------------------------------------------------------------|
A|----------------7777777777777777--------------------------------------------
E|7777777777777777-----------------------------------------------------------

repeat the bridge and then end with the intro bit...and you're playin' the strokes

| /  slide up
|   slide down
| h  hammer-on
| p  pull-off
| ~  vibrato
| +  harmonic
| x  Mute note


Добавлено: 21.01.2014
Другие материалы по этой песне:
  • Аккорды и текст

Страница создана 21.01.2014
http://primanota.ru/strokes/reptilia-perfect-chords.htm
Привет, Гость.
Предлагаем пройти революционный курс по гитаре.
Подарок от PrimaNota.Ru, забирай!