PrimaNota.ru - самый крупный в мире бесплатный архив песенных текстов, аккордов, табулатур и нот


Strokes - 12 51 - аккорды и текст, таба, бас-таба, драм-таба, видео

Регистрация Запомнить меня
Войти через:  Facebook Google Twitter Vk Yandex Mail.ru

Strokes - 12 51 - аккорды и текст, таба, бас-таба, драм-таба, видео

Печатать
Просмотров: 342
12 51
Strokes
	The Strokes - 12:51 

Here is the new Strokes song. Its pretty short. This is
as accurate as possible!

**Albert**

Part 1:

 E -12------     E ----
 B ---12----     B --9-
 G -----x---     G --9- let ring
 D -------14 x2  D --9-
 A ---------     A ----
 E ---------     E ----

Part 2

 E -----------------------------------
 B -10-------9--------10-------9------
 G -9---x16--9---x16--9---x16--9---x16   x2
 D -10-------9--------10-------9------
 A -----------------------------------
 E -----------------------------------

Part 3

 E --------------------------------------------
 B --------------------------------------------
 G --------------------------------------------
 D --------------------------------------------   x2
 A -2---x8pm--/7---x8pm--4---x8pm--/9---x8pm--
 E -0---------/5---------2---------/7---------

Part 4

 E ----------------------------
 B ----------------------------
 G --9-------6-------4-------
 D --9---x8--6---x4--4---x4--   x4
 A --7-------4-------2-------
 E ----------------------------

Slide between these chords, if you want you can take
a chord off the end of each one and dedicate it to the 
slide i.e. 7 chords, slide, 3 chords, slide, 3 chords.

Part 5

 E --------------------------------------------
 B --------------------------------------------
 G -4-----------9---(x8)--6---(x8)--11---(x8)--
 D -2----(x8)---7---------4---------9----------  x2
 A -x------------------------------------------
 E -0------------------------------------------

End

 E ----------
 B -9------9-
 G -9------9-
 D -9------9-
 A ----------
 E ----------

Order:

Albert:   Nick:     

Part 1
Part 2
Part 3     Part A
Part 4     Part C
Part 3     Part B
Part 4     Part C
Part 2     Part D
Part 3     Part A
Part 5     Part B
Part 4     Part C
End

**Nick**

Part A

 E ---------------|---------------
 B -/9-57-59-5--7-|-7-45-47-5--4--
 G ---------------|---------------  x2
 D ---------------|---------------
 A ---------------|---------------
 E ---------------|---------------

Part B

 E -------------|---------------|--------------|--------------
 B -9-57-59-5-7-|-7-45-47-5-4---|9-57-512-10-9-|7-45-47-5-4---
 G -------------|---------------|--------------|--------------
 D -------------|---------------|--------------|--------------
 A -------------|---------------|--------------|--------------
 E -------------|---------------|--------------|--------------

Part C (Chorus)

 E ------------------------------------------------------
 B -/12--9-7-9---/12--9--7--9---/12--9-7-9---5--9--7--9-
 G ------------------------------------------------------
 D ------------------------------------------------------ x2
 A ------------------------------------------------------
 E ------------------------------------------------------

Part D

 E -------------|-------------|-------------|-------------|
 B -13-15-12-13-|-17-15-------|-13-15-12-13-|-17-15-------|
 G -------------|-------17-16-|-------------|-------17-16-|
 D -------------|-------------|-------------|-------------|
 A -------------|-------------|-------------|-------------|
 E -------------|-------------|-------------|-------------|

 E -----------------------|-------------|-------------|--------------
 B -17--13-15-12----15-12-|-17-15-------|-13-15-12-13-|-17-15--------
 G ---------------14------|-------17-16-|-------------|-------17-16~-
 D ---14--------14--------|-------------|-------------|--------------
 A -----------------------|-------------|-------------|--------------
 E -----------------------|-------------|-------------|--------------
Добавлено: 08.05.2012
Другие материалы по этой песне:

Страница создана 21.02.2012
http://primanota.ru/strokes/1251-chords.htm
Привет, Гость.
Предлагаем пройти революционный курс по гитаре.
Подарок от PrimaNota.Ru, забирай!