PrimaNota.ru - самый крупный в мире бесплатный архив песенных текстов, аккордов, табулатур и нот


Strokes - Reptilia1 - таба, видео

Регистрация Запомнить меня
Войти через:  Facebook Google Twitter Vk Yandex Mail.ru

Strokes - Reptilia1 - таба, видео

Печатать
Просмотров: 101


The Strokes - Reptilia

 bm  E
 -7  -
 -7  -9
 -7  -9
 -9  -9
 -   -
 -   -


intro-thing
     X2                  X2
  -----------------   --------------------
  -----------------   --------------------
  -7--7---7--------   --------------------x4
  -x--x-x-x--9---7-   --------------------
  -x--x-x-x--x-x-x-   -11-11--11-14-17----
  -7--7---7--7---7-   --------------------

  Verse         x2                       x2
  ----------------     --------------------
  ----------------     --------------------
  ----------------   ----------------------x4
  -12-12--12------     ---------------12---
  -----------14-12     -11-11--11--14------
  ----------------     --------------------


  Introthing X2


   Break

-----------------------------------------------
15-15--15/-10-10--10/-12-12--12/-14-14--14-121212
-----------------------------------------------
-----------------------------------------------
14-14--14/--9--9---9/-10-10--10/-12-12--12-101010
-----------------------------------------------

-------------------------------
-14-14--14--10-10--10--14-14---
-------------------------------   X5
-------------------------------
-12-12--12--9--9----9--15-15---
-------------------------------

  solo
         this part    x2
  -----------------------------------------------
  -9-7---7---------------7-9-7---7---------------
  -----9---9-7-9-7-6-7-6-------9---9-7-9-7-6-7-64
  -----------------------------------------------
  -----------------------------------------------
  -----------------------------------------------
  Theres also another part of the solo that comes right after these two times.

Interlude

  ----------------------------
  ----------------------------
  -------------------------------------9-------9
  -----9-------9-------9-------9-------9-------9
  -----9-------9-------9-------9---7-7-7-7-7-7-7
  -7-7-7-7-7-7-7-7-7-7-7-7-7-7-7-7-------------

  ---------------------- -----------------
  ---------------------- -9-9-9-9-9-9-9-9-
  -------9-------9-0---- -9-9-9-9-9-9-9-9-
  -------9-------9-0---- -9-9-9-9-9-9-9-9-
  -7-7-7-7-7-7-7-7-0---- -----------------
  ---------------------- -----------------

  2 X introthing and it starts over and ends right before solo.


Добавлено: 18.10.2013
Другие материалы по этой песне:
  • Аккорды и текст

Страница создана 18.10.2013
http://primanota.ru/strokes/reptilia1-chords.htm
Привет, Гость.
Предлагаем пройти революционный курс по гитаре.
Подарок от PrimaNota.Ru, забирай!