PrimaNota.ru - самый крупный в мире бесплатный архив песенных текстов, аккордов, табулатур и нот


Stone Sour - Take A Number - аккорды и текст, таба, бас-таба, видео

Регистрация Запомнить меня
Войти через:  Facebook Google Twitter Vk Yandex Mail.ru

Stone Sour - Take A Number - аккорды и текст, таба, бас-таба, видео

Печатать
Просмотров: 306
Take A Number
Stone Sour
		   Take A Number-Stone Sour
Stone Sour

Double Drop Db:
Db Ab Db Gb Bb Db


Intro:

x3
d-----------------------------------------------
b-----------------------------------------------
g-/9--7------------/9--7--------5----------x-x--
d--x--x-------------x--x--------x----------x-x--
a-/7--5------------/7--5--------3----------x-x--
d---------0---0-0----------0-0------------------

then,

gtr. 1

d-----------------------------------------------
b--------------------------8---10---------------
g-/9--7------------/9--7---x----x---------------
d--x--x-------------x--x---5----7---------------
a-/7--5------------/7--5------------------------
d---------0---0-0-------------------------------

gtr. 2

d-----------------------------------------------
b-----------------------------------------------
g-/9--7------------/9--7--------5---------------
d--x--x-------------x--x--------x---------------
a-/7--5------------/7--5--------3---------------
d---------0---0-0----------0-0------------------     
Добавлено: 01.07.2013
Другие материалы по этой песне:

Страница создана 25.02.2012
http://primanota.ru/stone-sour/take-a-number-chords.htm
Привет, Гость.
Предлагаем пройти революционный курс по гитаре.
Подарок от PrimaNota.Ru, забирай!