PrimaNota.ru - самый крупный в мире бесплатный архив песенных текстов, аккордов, табулатур и нот


Stone Sour - Your God - текст песни, таба, бас-таба, видео

Регистрация Запомнить меня
Войти через:  Facebook Google Twitter Vk Yandex Mail.ru

Stone Sour - Your God - текст песни, таба, бас-таба, видео

Печатать
Просмотров: 299
-------------------------------------------------------------------------------
                             "Your God" solo -- Stone Sour
-------------------------------------------------------------------------------

Tabbed by: [travis]
Email: syn_gates_punk14@msn.com


Tuning: B F# B E G# C#


Key:

h = hammer on
p = pull off 
/ \ = slides
b = bend
1 = one step bend
~ = ring out / vibrato
() = note barely heard, or barely picked.



Guitar 1:
C#|-17p13--------------------------13----------------------13------------------------------------------|
G#|-------13-------------13-15-16-----14-13-------14-15-16----------16--15h16p15-13--------------------|
E |-------------12-14-15--------------------15-16------------------------------------15-14-15---14~~~~~|
B |----------15----------------------------------------------------------------------------------------|
F#|----------------------------------------------------------------------------------------------------|
B |----------------------------------------------------------------------------------------------------|


C#|------------------------------------------------------------------------------------------------------------------|
G#|-15h/17p\15---------------------------------------------------------15h16h18p16p15p/13----------------------------|
E |--------------14h/15p\14--12h/14\12~~~~~~~(12)\------------14h15h17--------------------17p15p14/19---17~~~~~(17)\-|
B |-------------------------------------------------/13h15h17--------------------------------------------------------|
F#|------------------------------------------------------------------------------------------------------------------|
B |------------------------------------------------------------------------------------------------------------------|

++++++++++++++++++++++++++++++++++++++++++++++++++++++++++++++++++++++++
Guitar 1:
       1
C#|--------------------------------------------------------------------------------------|
G#|------------------------------------13/16-----16----15---16--(16)h/18\--15~~~~~(15)\--|
E |-/17b----(19)----(19)------14~~~~~~~--------------------------------------------------|
B |--------------------------------------------------------------------------------------|
F#|--------------------------------------------------------------------------------------|
B |--------------------------------------------------------------------------------------|
    

Guitar 2:
       1
C#|-------------------------------------------------------------------------------------------|
G#|--13b----(15)----(15)------10~~~~~~~8/11----11----10---11---(11)h/13-----------------------|
E |-----------------------------------------------------------------------14~~~~(14)\-10h12---|
B |-------------------------------------------------------------------------------------------|
F#|-------------------------------------------------------------------------------------------|
B |-------------------------------------------------------------------------------------------|

++++++++++++++++++++++++++++++++++++++++++++++++++++++++++++++++++++++++++
Guitar 1:
       1
C#|----------------------------------------|
G#|----------------------------------------|
E |-/17b----(19)----(19)------14~~~~~(14)\-|
B |----------------------------------------|
F#|----------------------------------------|
B |----------------------------------------|

Guitar 2:
       1   
C#|----------------------------------------|
G#|--13b----(15)----(15)------10~~~~~(10)\-|
E |----------------------------------------|
B |----------------------------------------|
F#|----------------------------------------|
B |----------------------------------------|

++++++++++++++++++++++++++++++++++++++++++++++++++++++++++++++++++++++++++
Guitar 1:
C#|--------------------------------------------------------13-------------------------------|
G#|--------------------------------13-13-------13-15-15-16-------16p15p13-------------------|
E |-/12-15-15-14-15-14-14-15-15-15-------15-15----------------------------15-14-12----------|
B |--------------------------------------------------------------------------------15-13----|
F#|--------------------------------------------------------------------------------------17-|
B |-----------------------------------------------------------------------------------------|

   These are the lyrics for this little part of the end solo.
"Say something, anything to me. I do believe but I"
C#|----------------------------------------------|
G#|----------------------------------------------|
E |----------------------------------------------|
B |--------------------------------x///////////--|
F#|-(17)p\\\\\\\\10p\\\\\\\\\0-----x//////////---|
B |----------------------------------------------|
    The x//// is "string noise" which means slide your hand down the neck.

Comment it and Rate it.
[travis]

Добавлено: 21.03.2012
Другие материалы по этой песне:

Страница создана 21.03.2012
http://primanota.ru/stone-sour/your-god-chords.htm
Привет, Гость.
Предлагаем пройти революционный курс по гитаре.
Подарок от PrimaNota.Ru, забирай!