PrimaNota.ru - самый крупный в мире бесплатный архив песенных текстов, аккордов, табулатур и нот


Stone Sour - Tumult - аккорды и текст, таба, драм-таба, видео

Регистрация Запомнить меня
Войти через:  Facebook Google Twitter Vk Yandex Mail.ru

Stone Sour - Tumult - аккорды и текст, таба, драм-таба, видео

Печатать
Просмотров: 299
Tumult
Stone Sour
		   Tumult-Stone Sour
Stone Sour

Drop Db:
Db Ab Db Gb Bb Eb

  > = harmonics

Intro: pm 0's

x3
e---------------------------------------------------------------
b---------------------------------------------------------------
g---------7-----------7--5--8----------7----10--1010--12-12-12--
d---------7-----------7--5--8----------7-----x---x-x---x--x--x--
a---------5-----------5--3--6----------5-----8---8-8--10-10-10--
d-0-0-0-0-----0-0-0-0----------0-0-0-0-----0--------------------

then,

e---------------------------------------------------------------
b---------------------------------------------------------------
g---------7-----------7--5--8--7--------------------------------
d---------7-----------7--5--8--7--------------------------------
a---------5-----------5--3--6--5--------------------------------
d-0-0-0-0-----0-0-0-0------------------------------------ 2>----

Fig. 1 x4

e------------------------------------------------------------
b------------------------------------------------------------
g---------7-----------7--5--8----------7-----------7--5--8---
d---------7-----------7--5--8----------7-----------7--5--8---
a---------5-----------5--3--6----------5-----------5--3--6---
d-0-0-0-0-----0-0-0-0----------0-0-0-0-----0-0-0-0-----------

Riff A: (bass. arr. for gtr.)

g--------------------------------------------------
d--------------------------------------------------
a------5--------5-----6--------5-------5-----3-----
d-0----------0-----0------0---------0-----0-----0--

Verses: Riff A     
Добавлено: 17.10.2013
Другие материалы по этой песне:

Страница создана 10.03.2012
http://primanota.ru/stone-sour/tumult-chords.htm
Привет, Гость.
Предлагаем пройти революционный курс по гитаре.
Подарок от PrimaNota.Ru, забирай!