PrimaNota.ru - самый крупный в мире бесплатный архив песенных текстов, аккордов, табулатур и нот


Steve Vai - Hand On Heart - аккорды и текст, таба, видео

Регистрация Запомнить меня
Войти через:  Facebook Google Twitter Vk Yandex Mail.ru

Steve Vai - Hand On Heart - аккорды и текст, таба, видео

Печатать
Просмотров: 211
Hand On Heart
Steve Vai
		   From jcreule@centroin.com.br Sun May  4 09:46:03 1997

    [The following text is in the "ISO-8859-1" character set]
    [Your display is set for the "US-ASCII" character set]
    [Some characters may be displayed incorrectly]

Hand on Heart
Steve Vai

Transcribed by: Fernando Reule    jcreule@centroin.com.br


	Well, I'm not as good as Steve, neither have his feeling, but as I
didn't find this song at 's page, I decided to put it on my way,
wright or wrong... :-) Please, when you find something wrong, notify
me!

(1)
|---------------------------|---------------------------|-------------
---------------|
|-----14---14-14-12-11-11>12|---12---12-12-11-9-9>11----|----------9-1
1--------------|
|---------------------------|---------------------------|-11-11-11----
--9-8>9>8------|
|--11-----------------------|-11------------------------|-------------
-----------11--|
|---------------------------|---------------------------|-------------
---------------|
|---------------------------|---------------------------|-------------
---------------|

|---------------------------|
|----------11>9-------------|
|----11>13------11>8>11-----| REPEAT (1)
|-9-------------------------|
|---------------------------|
|---------------------------|

(2)
|---------------------------|
|-17-16-14-14>16-12-12>14---|
|---------------------------| 2 X
|---------------------------|
|---------------------------|
|---------------------------|

(3)
|--------------6-6----|-----------7>6-----|-------------6-6---8>9--9>1
1--11>12--|
|------7-7-9-9--------|-----7-7-9-----7---|-----7-7-9-9-----7---------
----------|
|--6-6----------------|-6-6---------------|-6-6-----------------------
----------|
|---------------------|-------------------|---------------------------
----------|
|---------------------|-------------------|---------------------------
----------|

AND...Sorry! That's All folks! At least untill someone completes it
or I do it by myself!
From jcreule@centroin.com.br Sun May  4 09:46:52 1997

    [The following text is in the "ISO-8859-1" character set]
    [Your display is set for the "US-ASCII" character set]
    [Some characters may be displayed incorrectly]

Hand on Heart
by Steve Vai
from the album FIRE GARDEN
Transcribed by: Fernando Reule    jcreule@centroin.com.br


	Well, I'm not as good as Steve, neither have his feeling, but as I
didn't find this song at 's page, I decided to put it on my way,
wright or wrong... :-) Please, when you find something wrong, notify
me!

(1)
|---------------------------|---------------------------|-------------

---------------|
|---13b(14)---14-12-11-11>12|---12---12-12-11-9-9>11----|----------9-1

1--------------|
|---------------------------|---------------------------|-11-11-11----

--9-8>9>8------|
|-11------------------------|-11------------------------|-------------

-----------11--|
|---------------------------|---------------------------|-------------

---------------|
|---------------------------|---------------------------|-------------

---------------|

|---------------------------|
|----------11>9-------------|
|----11>13------11>8>11-----| REPEAT (1)
|-9-------------------------|
|---------------------------|
|---------------------------|

(2)
|---------------------------|
|-17-16-14-14>16-12-12>14---|
|---------------------------| 2 X
|---------------------------|
|---------------------------|
|---------------------------|

(3)
|--------------6-6----|-----------7>6-----|-------------6-6---8>9--9>1

1--11>12--|
|------7-7-9-9--------|-----7-7-9-----7---|-----7-7-9-9-----7---------

----------|
|--6-6----------------|-6-6---------------|-6-6-----------------------

----------|
|---------------------|-------------------|---------------------------

----------|
|---------------------|-------------------|---------------------------

----------|

AND...Sorry! That's All folks! At least untill someone completes it
or I do it by myself!
Hand On Heart (Fire Garden album)
Music by Steve Vai
Transcribed by Jason Richards(16 yrs of age), Reading, England, April '97
(HFPhoenix@aol.com)

This is the main theme of Hand On Heart which Steve variates several times in the piece.  I worked it out along the B string but feel free to use the notes on other strings to be more comfortable.  He worked hard on the tone of the guitar rather than on speed and dexterity.  To try to recreate his tone try some soft distortion with delay and reverb.

The bends steve does are to accurate notes.  So, to practise getting to the right pitch each time it is best to slide the notes to start with, rather that bend them.  I've included as much detail as possible to make it more accurate.

Notation:
 =bend up
=bend down
~=vibrato
h=hammer-on
p=pull off
/=slide up
*=pinched harmonic

    B       Hold Note        A          E    Hold note   F#m
e|---------------------------------|-------------------------------|
b|----12 14----14>12--11--11h12~~~~|----11 12----12~~p9--7h9h11~~~~|
g|---------------------------------|-------------------------------|
d|11-------------------------------|--9----------------------------|
a|---------------------------------|-------------------------------|
e|---------------------------------|-------------------------------|


  G#m                  A                  E                     F#m
e|-------------------------------------|---------------------------|
b|/7-7-7~--9-(9)/11----5~~--4h5h4------|0--(7)/9~~-9/11\9~--7\4/7~~|
g|--------------------------------6~~~-|---------------------------|
d|-------------------------------------|---------------------------|
a|-------------------------------------|---------------------------|
e|-------------------------------------|---------------------------|

This is played three times with variations.  The second time introduces the chords and the third time, percussion.  I'm not sure of the accompanying chords but i've put what i think they are in to give you the impression.

This is roughly the next part of the piece:

e|---------------------------------|------------16------------------|
b|14h16h17~-17-16-14-16~-12-12h14~~|14h16h17~-17---17-16~-12-12h14~~|
g|---------------------------------|--------------------------------|
d|---------------------------------|--------------------------------|
a|---------------------------------|--------------------------------|
e|---------------------------------|--------------------------------|







e|--------------------------------|---------------------------------|
b|--2-2--7-7--9-9--11-11~---------|--2-2--7-7--9-(9)h11h12-11-9-7---|
g|--------------------------------|---------------------------------|
d|--------------------------------|---------------------------------|
a|--------------------------------|---------------------------------|
e|--------------------------------|---------------------------------|
                                                 (pick scrape)
e|---------------------------------------------------|
b|--2-2--7-7--9-9--11-11--(11)\7--14-16-17*~~~~--x\--|
g|---------------------------------------------------|
d|---------------------------------------------------|
a|---------------------------------------------------|
e|---------------------------------------------------|

This is a build up to the 'solo' part which is much more complicated.  I haven't figured this part out yet but if you want to try, to start you off, the first two notes are:

e|--------|
b|--12-11-|
g|--------|
d|--------|
a|--------|
e|--------|

If anyone can make any further ammendments or knows and more, please send them in.  This is the first tab i've written and it sure was fun, hope you enjoy it.     
Добавлено: 18.08.2013
Другие материалы по этой песне:

Страница создана 28.02.2012
http://primanota.ru/steve-vai/hand-on-heart-chords.htm
Привет, Гость.
Предлагаем пройти революционный курс по гитаре.
Подарок от PrimaNota.Ru, забирай!