PrimaNota.ru - самый крупный в мире бесплатный архив песенных текстов, аккордов, табулатур и нот


Steve Vai - Building The Church - таба, видео

Регистрация Запомнить меня
Войти через:  Facebook Google Twitter Vk Yandex Mail.ru

Steve Vai - Building The Church - таба, видео

Печатать
Просмотров: 145
Авторы музыки: Steve Vai

Posted by John Alvin Apaya from the Philippines
daddy_maps003@yahoo.com
Gtr I (E A D G B E) - 'Untitled'
Gtr II (C G C F A D) - 'Untitled'
Gtr III (C G C F A D) - 'Untitled'
Gtr IV (E A D G B E) - 'Untitled'
Gtr V (E A D G B E) - 'Untitled'
Gtr VI (E A D G B E) - 'Untitled'


   Intro
    Moderately Q=94
    N.C.
   4/4
    Gtrs I, IV
     |
     T  T  T  T  T  T  T  T  T  T  T  T  T  T  T  T  T  T  T  T  T  T  T  T  T  T  T  T  T  T  T  T   4x
||-----10----------10----------10----------10----------10----------10----------10----------10---------||
||o-13----------------13----------------13----------------13----------------13----------13-----------o||
||--------12----------------12----------------12----------------12----------------12----------12------||
||-----------10----------10----------10----------10----------10----------10----------10----------10---||
||o-------------12----------------12----------------12----------------12-----------------------------o||
||----------------------------------------------------------------------------------------------------||


    D5    E5                      D5    E5                       D5    E5    D5    E5
    Gtrs II, III
                                                                  PM---|
     S     S     e           S     S     S     S     S     S      S     S     S     S     E
||---------------------------------------------------------------------------------------------------|
||o--------------------------------------------------------------------------------------------------|
||---------------------------------------------------------------------------------------------------|
||--------------------------------------------------------<5>----------------------------------------|
||o--0h====2-----2-----------x-----0h====2-----2------------------0-----2-----0h====2-----x----------|
||---0h====2-----2-----------x-----0h====2-----2------------------0-----2-----0h====2-----x----------|
|
|   Gtrs I, IV
|    T  T  T  T  T  T  T  T  T  T  T  T  T  T  T  T  T  T  T   T  T  T  T  T  T  T  T  T  T  T  T  T
||-----10----------10----------10----------10----------10-----------10----------10----------10-------|
||o-13----------------13----------------13----------------13-----------------13----------13----------|
||--------12----------------12----------------12-----------------12----------------12----------12----|
||-----------10----------10----------10----------10-----------10----------10----------10----------10-|
||o-------------12----------------12----------------12-----------------12----------------------------|
||---------------------------------------------------------------------------------------------------|


     1.
  D5    E5                      D5    E5                N.C.
                                                                  ~~~~
                                                                               |------------6------------|
   S     S     e           S     S     S     S     S     S       +E            S    S    S     S    S    S
|--------------------------------------------------------------------------------------------------------------||
|-------------------------------------------------------------------------------------------------------------o||
|-------------------------------------------------------[4]b6r===(4)p==========2-------------------------------||
|-----------------------------------------------------------------------------------4p===2---------------------||
|--0h====2-----2-----------x-----0h====2-----2-------------------------------------------------5p===2p===0----o||
|--0h====2-----2-----------x-----0h====2-----2-----------------------------------------------------------------||
|
|  T  T  T  T  T  T  T  T  T  T  T  T  T  T  T  T  T  T  T     T  T   T  T  T  T  T    T    T  T  T    T    T
|----10----------10----------10----------10----------10--------------10----------10--------------10------------||
|-13----------------13----------------13----------------13--------------------13--------------13--------------o||
|-------12----------------12----------------12-------------------12-------------------12--------------12-------||
|----------10----------10----------10----------10-------------10-----------10--------------10--------------10--||
|-------------12----------------12----------------12--------------------12------------------------------------o||
|--------------------------------------------------------------------------------------------------------------||


  2.
  Gtrs II, III                                        Gt
   S     S     e           S     S     S      S  H
|-----------------------------------------------------||
|-----------------------------------------------------||
|-----------------------------------------------------||
|-----------------------------------------------------||
|--0h====2-----2-----------x-----0h====2------2-------||
|--0h====2-----2-----------x-----0h====2------2-------||
|
| Gtrs I, IV                                          Gt
|  T  T  T  T  T  T  T  T  T  T  T  T  T  T   s  H
|----10----------10----------10----------10-(17)------||
|-13----------------13----------------13--------------||
|-------12----------------12-----------------12-------||
|----------10----------10----------10-----------------||
|-------------12----------------12--------------------||
|-----------------------------------------------------||


 Verse I
  N.C.
 r I
    ~~~~~~~~~~~~~~~~~~~                       ~~~~~~~~~~~~~~~~
  S E.   +Q        +E.   S    +S  S E   E.    S +Q        +Q.       +E
|-------------------------------------|----------------------------------|
|-------------------------------------|----------------------------------|
|-------------------------------------|-------5-(5)-------(5)-------(5)/-|
|-5s7----(7)-------(7)---7pb8r(7)p5---|-5--------------------------------|
|-----------------------------------8-|----------------------------------|
|-------------------------------------|----------------------------------|
|
|rs II, III
|                                                                 ~
| S S  e  S  S S S  E  S S     S  S e   S S e    S  S S S  E  S S E  E
|-------------------------------------|----------------------------------|
|-------------------------------------|----------------------------------|
|-------------------------------------|----------------------------------|
|-------------------------------------|----------------------------------|
|-------------------------------------|----------------------------------|
|-0h2--2-----0h2-2-----0h2-----0h=2-2-|-0h3-3-------0h3-3-----0h5-5--3---|


                                                    ~~~~~~~
  E    E S E   S +E.   S     +S  S  E     E.     a  S  +H                   E    E
|-------------------------------------|--------------------------------------------|
|-------------------------------------|--------------------------------------------|
|--------5h7s==9-(9)---9pb10r(9)p7----|---------10s12-(12)---------------------/14p|
|-----\7---------------------------10-|-/12----------------------------------------|
|-------------------------------------|--------------------------------------------|
|-------------------------------------|--------------------------------------------|
|
| S S  e S S S S  E  S S      S  S  e     S S e         S  S S S E S +S    +E    E
|-------------------------------------|--------------------------------------------|
|-------------------------------------|--------------------------------------------|
|-------------------------------------|--------------------------------------------|
|-------------------------------------|--------------------------------------------|
|-------------------------------------|--------------------------------------------|
|-0h2--2---0h2-2-----0h2------0h=2--2-|---0h3-3------------0h3-3---7-(7)b8r(7)---5-|


   Q       E.       S   +Q        E    E
|-------------------------------------------|
|-------------------------------------------|
|-11----------------------------------11s===|
|--------<12>-------------------/12---------|
|-----------------<12>-(12)-----------------|
|-------------------------------------------|
|
|  S S e   S  S S   S    E  S S   S S  e
|-------------------------------------------|
|-------------------------------------------|
|-------------------------------------------|
|-------------------------------------------|
|-------------------------------------------|
|--0h2-2------0h2---2-------0h2---0h2--2----|


                                                                                                  |------3------|
  Q       Q         Q      E.      +T   T    S  S      +S   S      +S   S      +S   S  +E.    S  +S      +S     S  E
|-----------------------------------------|--------------------------------------------------------------------------|
|-----------------------------------------|--------------------------------------------------------------------------|
|-8-----/10-------/12-----14b15r==(14)p12-|-14-14pb15r(14)-14pb15r(14)-14pb15r(14)-14-(14)---14-(14)b15r(14)p==12----|
|-----------------------------------------|-----------------------------------------------------------------------15-|
|-----------------------------------------|--------------------------------------------------------------------------|
|-----------------------------------------|--------------------------------------------------------------------------|
|
|                          ~~~~~~
| S S e   S S S S   E S S  E    E            S  S       e           S   S       S   S   E  S  S   S          S     e
|-----------------------------------------|--------------------------------------------------------------------------|
|-----------------------------------------|--------------------------------------------------------------------------|
|-----------------------------------------|--------------------------------------------------------------------------|
|-----------------------------------------|--------------------------------------------------------------------------|
|-----------------------------------------|--------------------------------------------------------------------------|
|-0h3-3-----0h3-3-----0h5--5----3---------|--0h=2-------2---------------0h======2---2------0h=2---0h=========2-----2-|


           ~~~~~~~~~~~~~~~~~~~~~~
    E.     S      +Q         +Q.              +E
|-----------------------------------------------------|
|-----------------------------------------------------|
|---------17b19==(17)-------(17)-------------(17)r\---|
|-/17-------------------------------------------------|
|-----------------------------------------------------|
|-----------------------------------------------------|
|
|   S S e          S  S S S   E  S +S    +E    E
|-----------------------------------------------------|
|-----------------------------------------------------|
|-----------------------------------------------------|
|-----------------------------------------------------|
|-----------------------------------------------------|
|---0h3-3-------------0h3-3------7-(7)b8r(7)---5------|


  D5Bb5     D5 Bb5               D5   Bb5 D5Bb5
  Gtrs V, VI
                                 |--3---|
  S   S S S  S S S  a  S  +S   S S  S   S S  S S  S
|---------------------------------------------------|
|---/11s9p8-----------------------------------------|
|-----------10-8-7-10s12-(12)s10-8h10p==8s7---------|
|-------------------------------------------10-8----|
|------------------------------------------------11-|
|---------------------------------------------------|
|
| Gtrs II, III
| S   S e    S S S     S   S   S S    S   S  S e
|---------------------------------------------------|
|---------------------------------------------------|
|---------------------------------------------------|
|---------------------------------------------------|
|-0h==8-8----x-0h8-----8-------x-0h===8---0h=8-8----|
|-0h==8-8----x-0h8-----8-------x-0h===8---0h=8-8----|


  D5 A5        D5 A5                 D5A5D5   A5
   E.     S  S  S  S  +S       +Q          E     +E
|-----------------------------------------------------|
|-----------13----------------------------------------|
|--------10-------------------------------------------|
|--------------10-10-(10)b12==(10)-------[10]r==(10)\-|
|-10--------------------------------------------------|
|-----------------------------------------------------|
|
|  S S e     S  S  S   S        S  S S S   S  S   e
|-----------------------------------------------------|
|-----------------------------------------------------|
|-----------------------------------------------------|
|-----------------------------------------------------|
|--0h7-7-----x--0h=7---7-----------x-0h7---0h=7---7---|
|--0h7-7-----x--0h=7---7-----------x-0h7---0h=7---7---|


  D5Bb5              D5 Bb5               D5   Bb5   D5 Bb5
  Gtr V
                            ~~~~~~~~~~~~
  S  S     +S   S  S  S  S  S      +E      +S   T  T  S  S  S  S
|---18b20r(18)p16------------------------------------------------|
|-----------------20-18-16-20b21==(20)r===(20)h21p20p18----------|
|-------------------------------------------------------20-19h20-|
|----------------------------------------------------------------|
|----------------------------------------------------------------|
|----------------------------------------------------------------|
|
| Gtr VI
|                           ~~~~~~~~~~~~
| S  S     +S   S  S  S  S  S      +E.          T  T  S  S  S  S
|---15b17r(15)p13------------------------------------------------|
|-----------------16-15-13-16b18==(16)r--------15p13p11----------|
|-------------------------------------------------------13-12h13-|
|----------------------------------------------------------------|
|----------------------------------------------------------------|
|----------------------------------------------------------------|
|
| Gtrs II, III
| S  S      e      S  S  S  S       S   S   S   S     S  S  E
|----------------------------------------------------------------|
|----------------------------------------------------------------|
|----------------------------------------------------------------|
|----------------------------------------------------------------|
|-0h=8------8------x--0h=8--8-----------x---0h==8-----0h=8--8----|
|-0h=8------8------x--0h=8--8-----------x---0h==8-----0h=8--8----|


                                          Chorus I
  A5           Eb5                          E5                   D5E5              E5 F5
                                           Gtrs V, VI
                ~~~~~~~~~~~~~~~~~~~~~~~~                       ~~~~~~~~~~~~~~~~
   E.  S  +E    E      +Q.        +E         E.     S  +S   S  E    +Q    +S     S  S  S
|---------------------------------------||------------------------------------------------|
|---------------------------------------||-----------------13------------------/10-10-10--|
|-19--20-(20)--20b22==(20)-------(20)r\-||--12b14==12-(12)----12---(12)--(12)r------------|
|---------------------------------------||------------------------------------------------|
|---------------------------------------||------------------------------------------------|
|---------------------------------------||------------------------------------------------|
|
|               ~~~~~~~~~~~~~~~~~~~~~~~~
|  E.  S  +E    E      +Q.        +E         W
|---------------------------------------||------------------------------------------------|
|---------------------------------------||------------------------------------------------|
|-12--13-(13)--15b17==(15)-------(15)r\-||------------------------------------------------|
|---------------------------------------||------------------------------------------------|
|---------------------------------------||------------------------------------------------|
|---------------------------------------||------------------------------------------------|
|
|  E.  S  +E    E      +Q     Q              Q         +E.       S   Q.             S  S
|---------------------------------------||------------------------------------------------|
|---------------------------------------||------------------------------------------------|
|---------------------------------------||------------------------------------------4s=5--|
|---------------1------(1)--------------||------------------------------------------2s=3--|
|--7---7--(7)\--1------(1)--------------||---2---------(2)p======0---2--------------2s=3--|
|--7---7--(7)\--1------(1)--/12\--------||---2---------(2)p======0---2--------------2s=3--|


  C5                  CM7sus2
  Gtrs V, VI
                       ~~~~~~~~~~~~~
   E.     S  +S   +S   E  +Q    +S   +S           E
|--------------------------------------------------------|
|-13b15==13-(13)r(13)-13-(13)--(13)-(13)/-------\11------|
|--------------------------------------------------------|
|--------------------------------------------------------|
|--------------------------------------------------------|
|--------------------------------------------------------|
|
| Gtrs II, III
|                                |----------6----------|
|  E.     S  +E        E  +Q     E        +S     +S  S S
|--------------------------------------------------------|
|----------------------3--(3)----------------------------|
|--5------5--(5)-------4--(4)----------------------------|
|--5------5--(5)-------5--(5)----4--------(4)b5r=(4)p2p0-|
|--3------3--(3)-------3--(3)----------------------------|
|--------------------------------------------------------|


  E5           D5E5    C5  D5                          Gb         D
             ~~~~~~~~                                ~~~~~~~
   E.  S +E  E   +Q.     E      E      +S    S  +E   E  +Q.          +E
|----------------------------|---------------------------------------------|
|-10-------------------/15---|-15b17==(15)r-13-(13)-13-(13)---------(13)\--|
|-----\7-(7)-7---(7)---------|---------------------------------------------|
|----------------------------|---------------------------------------------|
|----------------------------|---------------------------------------------|
|----------------------------|---------------------------------------------|
|
|  Q     +E.   S  Q.     S S    H                        E   +E   E  +E
|----------------------------|---------------------------------------------|
|----------------------------|---------------------------------------------|
|----------------------------|--------------------------11--(11)\-7--(7)\--|
|------------------------5s7-|--7------------------------------------------|
|--2-----(2)p==0--2------3s5-|--5------------------------9---(9)\-5--(5)\--|
|--2-----(2)p==0--2----------|---------------------------------------------|


  E5                   E5                   F5
                        ~~~~~~~~~~~~~
   E.  S  +S   T  T  S  S  +Q    +S    S  S  S
|----------------------------------------------|
|-10--10-(10)h11p10----10-(10)--(10)-/10-10-10-|
|-------------------12-------------------------|
|----------------------------------------------|
|----------------------------------------------|
|----------------------------------------------|
|
|  Q      +E.           S   Q.            S  S
|----------------------------------------------|
|----------------------------------------------|
|-----------------------------------------4s=5-|
|-----------------------------------------2s=3-|
|--2------(2)p==========0---2-------------2s=3-|
|--2------(2)p==========0---2-------------2s=3-|


                                                 E5           E55D5
                       ~~~~~~~~~~~~~                         ~~~~~~~~~
   E.     S  +S   +S   E  +Q    +S   +S     E     E. S  +E   E    +Q.           E
|----------------------------------------------|-----------------------------------|
|-13b15==13-(13)r(13)-13-(13)--(13)-(13)/-\11--|-10s15-(15)-15---(15)----------15--|
|----------------------------------------------|-----------------------------------|
|----------------------------------------------|-----------------------------------|
|----------------------------------------------|-----------------------------------|
|----------------------------------------------|-----------------------------------|
|
|  E.     S  +E        E  +Q.               E     Q     +E.    S   E  +E    Q
|---------0--(0)-------------------------------|-----------------------------------|
|----------------------3--(3)------------------|-----------------------------------|
|--5-------------------------------------------|-----------------------------------|
|--3-------------------------------------------|-----------------------------------|
|--3-------------------------------------------|--2-----(2)p===0---2--(2)/-12\-----|
|--3----------------------------------------7\-|--2-----(2)p===0---2--(2)/-12\-----|


  D5     Eb5   D5EEb5     D5EbD5Eb5   D5     Eb5        DEb5  D5EbD5Eb5
  Gtr V
                                       \0.5/
   W                                   H                  H
|-----------------------------------|-----------------------------------|
|-----------------------------------|-18p================16-------------|
|-----------------------------------|-----------------------------------|
|-----------------------------------|-----------------------------------|
|-----------------------------------|-----------------------------------|
|-----------------------------------|-----------------------------------|
|
| Gtr VI
|  \0.5/                               \0.5/
|  H                  H                H                  H
|-----------------------------------|-----------------------------------|
|-18p================16-------------|-18p================16-------------|
|-----------------------------------|-18p================17-------------|
|-----------------------------------|-----------------------------------|
|-----------------------------------|-----------------------------------|
|-----------------------------------|-----------------------------------|
|                                      H                  H
|
| Gtrs II, III
|  S     S E S S S S  S S S S S S E    S     S E S S S S  S S S S S S E
|-----------------------------------|-----------------------------------|
|-----------------------------------|-----------------------------------|
|-----------------------------------|-----------------------------------|
|-----------------------------------|-----------------------------------|
|--0h====1-x-x-0h1-x----x-0h1-0h1-x-|--0h====1-x-x-0h1-x----x-0h1-0h1-x-|
|--0h====1-x-x-0h1-x----x-0h1-0h1-x-|--0h====1-x-x-0h1-x----x-0h1-0h1-x-|


  D5     Eb5   D5EEb5     D5EbD5EEb5   D5 Eb5  D5 Eb5      D5 Eb5    DD5b5 EDDEb5
   \0.5/
   H                  H                 E    S  S  +S    S  E    +Q             E.        +S
|------------------------------------|-----------------------------------------------------------|
|-18p================16--------------|-14h==16-18-(18)-/21s20---(20)-----------20b21r====(20)----|
|------------------------------------|-----------------------------------------------------------|
|------------------------------------|-----------------------------------------------------------|
|------------------------------------|-----------------------------------------------------------|
|------------------------------------|-----------------------------------------------------------|
|
|  H                  Q.           E    E    S  S  +S    S  E    +Q             E.        +S
|------------------------------------|-----------------------------------------------------------|
|-14p================13p==========11-|-11h==13-14-(14)-/18s16---(16)-----------16b18r====(16)----|
|-15p================13p==========12-|-10h==12-13-(13)-/17s15---(15)-----------15b17r====(15)----|
|------------------------------------|-----------------------------------------------------------|
|------------------------------------|-----------------------------------------------------------|
|------------------------------------|-----------------------------------------------------------|
|  H                  Q.           E    E    S  S  +S    S  E    +Q             E.        +S
|
|  S     S E S S S S  S S S S S S  E    S S  S  S   S    S  S S   S  S S S      S    S E
|------------------------------------|-----------------------------------------------------------|
|------------------------------------|-----------------------------------------------------------|
|------------------------------------|-----------------------------------------------------------|
|------------------------------------|-----------------------------------------------------------|
|--0h====1-x-x-0h1-x----x-0h1-0h1--x-|--0h1--x--0h==1----x--0h1---x--0h1-x------0h===1-x---------|
|--0h====1-x-x-0h1-x----x-0h1-0h1--x-|--0h1--x--0h==1----x--0h1---x--0h1-x------0h===1-x---------|


  D5 E5    D5E5        D5E5D5E5    D5  E5    D5E5
   >
   W                                +W
|--------------------------------|-----------------------------------------|
|-15-----------------------------|-(15)------------------------------------|
|--------------------------------|-----------------------------------------|
|--------------------------------|-----------------------------------------|
|--------------------------------|-----------------------------------------|
|--------------------------------|-----------------------------------------|
|
|  >
|  W                                +W
|--------------------------------|-----------------------------------------|
|-17-----------------------------|-(17)------------------------------------|
|-14-----------------------------|-(14)------------------------------------|
|--------------------------------|-----------------------------------------|
|--------------------------------|-----------------------------------------|
|--------------------------------|-----------------------------------------|
|
|                      PM|                                  ~~~~
|                                                              |----6----|
|  S S e S S S S S  S  S S S S E     S S e S S S S S  S    +E  S S S S S S
|--------------------------------|-----------------------------------------|
|--------------------------------|-----------------------------------------|
|--------------------------------|-------------------[4]b6r(4)p2-----------|
|------------------<5>-----------|-------------------------------4p2-------|
|--0h2-2-x-0h2-2-------0-2-0h2-x-|---0h2-2-x-0h2-2-------------------5p2p0-|
|--0h2-2-x-0h2-2-------0-2-0h2-x-|---0h2-2-x-0h2-2-------------------------|


  D5    E5    D5E5        D5E5D5E5    D5E5    D5E5  FM7
                                                    <
   +Q       Q       H                 H             H
|-----------------------------------|---------------0----||
|-(15)\-----------------------------|---------------1----||
|-----------------------------------|---------------2----||
|-----------------------------------|---------------3----||
|-----------------------------------|--------------------||
|-----------------------------------|--------------------||
|
|  +Q       Q       H                 W
|-----------------------------------|--------------------||
|-(17)\-----------------------------|--------------------||
|-(14)\-----------------------------|--------------------||
|-----------------------------------|--------------------||
|-----------------------------------|--------------------||
|-----------------------------------|--------------------||
|
|                         PM|
|   S   S e S S S S S  S  S S S S E   S S e S S S S H
|-----------------------------------|--------------------||
|-----------------------------------|--------------------||
|-----------------------------------|--------------------||
|---------------------<5>-----------|--------------------||
|---0h==2-2-x-0h2-2-------0-2-0h2-x-|-0h2-2-x-0h2-2------||
|---0h==2-2-x-0h2-2-------0-2-0h2-x-|-0h2-2-x-0h2-2------||


 Verse II
  D5 E5                D5E5          D5 E5    D5   E5
  Gtrs I, IV
   S  E    +S      +E     S  S  S  S  S  S     +S   S  E
|--------------------------------------------------------|
|--------------------------------------------------------|
|-12s14---(14)b15r(14)---12p10-12s14p12-14b15r(14)p12----|
|-----------------------------------------------------15-|
|--------------------------------------------------------|
|--------------------------------------------------------|
|
| Gtrs II, III
|  S  S E           S  S  S  S  S  S  S  S      S   S  E
|--------------------------------------------------------|
|--------------------------------------------------------|
|--------------------------------------------------------|
|--------------------------------------------------------|
|--0h=2-x-----------x--0h=2--x-----x--0h=2------0h==2--x-|
|--0h=2-x-----------x--0h=2--x-----x--0h=2------0h==2--x-|


  D5 F5          D5F5      D5G5      F5  D5 E5       D5 E5           D5E5     D5   E5
          ~~~~~~~
   E.     S  +H                 S  E.     E     E  S  E     S  +E.      S      +S   S  E
|--------------------------------------|--------------------------------------------------|
|--------13-(13)---------------13s15p==|=10-------13h15---/17-(17)-----17pb18r(17)p15s13--|
|-12-----------------------------------|------/14-----------------------------------------|
|--------------------------------------|--------------------------------------------------|
|--------------------------------------|--------------------------------------------------|
|--------------------------------------|--------------------------------------------------|
|
|  S S E      S  S S S S S S S  E    E    S S   E  S  S S   S   S  S S  S       S   S  E
|--------------------------------------|--------------------------------------------------|
|--------------------------------------|--------------------------------------------------|
|--------------------------------------|--------------------------------------------------|
|--------------------------------------|--------------------------------------------------|
|--0h3-x------x--0h3-x---x-0h5--5----3-|--0h2---x--x--0h2---x------x-0h=2-------0h==2--x--|
|--0h3-x------x--0h3-x---x-0h5--5----3-|--0h2---x--x--0h2---x------x-0h=2-------0h==2--x--|


  D5 F5            D5F5      A5              G5
          ~~~~~~~
   E.     S  +H                     S   E.
|--------15-(15)-----------------------15b17----|
|-15--------------------------------------------|
|-----------------------------------------------|
|-----------------------------------------------|
|-----------------------------------------------|
|-----------------------------------------------|
|
|  S S E      S  S S S S S S +S    +E         E
|-----------------------------------------------|
|-----------------------------------------------|
|-----------------------------------------------|
|-----------------------------------------------|
|--0h3-x------x--0h3-x---x-7-(7)b8r(7)--------5-|
|--0h3-x------x--0h3-x---x-7-(7)b8r(7)--------5-|


  D5    E5                      D5    E5                     D5E5D5 E5
         T     T           T     T           T     T     ~~
                                       |------6-------|
   T  T  T  T  T  T  T  T  T  T  T  T  T  T  T  T  T  T  Q        E    S  T  T
|-14h17h19p17h19p17p14------------------------------------------------14s11h13-|
|----------------------17h19p17h19p17p15-------------------------15------------|
|----------------------------------------17h19p17h19p17p14---------------------|
|------------------------------------------------------------------------------|
|------------------------------------------------------------------------------|
|------------------------------------------------------------------------------|
|
|  S     S     E           S     S     S        S        S S S S  S S  E
|------------------------------------------------------------------------------|
|------------------------------------------------------------------------------|
|------------------------------------------------------------------------------|
|------------------------------------------------------------------------------|
|--0h====2-----x-----------x-----0h====2--------x----------x-0h2--0h2--x-------|
|--0h====2-----x-----------x-----0h====2--------x----------x-0h2--0h2--x-------|


  D5    F5                      D5    F5                        D5      G5      G5          F5
                                                   |-----------7-----------|     |---------7---------|
   T  T  T  T  T  T  T  T  T  T  T  T  T  T  T  T  S  S    S  S    S  S    S  a  S  S  S  S    S  S  S
|-11h13p11h13p11h13p11h13s15-13h15p13h15p13h15s17-15h17p==15h17p==15h17s==20-18h20p18h20p18h==20p18s17-|
|------------------------------------------------------------------------------------------------------|
|------------------------------------------------------------------------------------------------------|
|------------------------------------------------------------------------------------------------------|
|------------------------------------------------------------------------------------------------------|
|------------------------------------------------------------------------------------------------------|
|
|  S     S     E           S     S     S     S     S    S       S       S        E          E
|------------------------------------------------------------------------------------------------------|
|------------------------------------------------------------------------------------------------------|
|------------------------------------------------------------------------------------------------------|
|------------------------------------------------------------------------------------------------------|
|--0h====3-----x-----------x-----0h====3-----x----------x-------0h======5--------5----------3----------|
|--0h====3-----x-----------x-----0h====3-----x----------x-------0h======5--------5----------3----------|


  D5 E5                       D5      E5                   D5      E5   D5      E5
   S  S      +T   T  S  S      +T   T  S  S      +T   T  S  +S      +S   +S      +T   T  E
|-17-17pb18r(17)p15-17-17pb18r(17)p15-17-17pb18r(17)p15-17-(17)b18r(17)-(17)b18r(17)p15----|
|---------------------------------------------------------------------------------------18-|
|------------------------------------------------------------------------------------------|
|------------------------------------------------------------------------------------------|
|------------------------------------------------------------------------------------------|
|------------------------------------------------------------------------------------------|
|
|  S  S       E         S       S      S  S       S      S   S       S    S       S      E
|------------------------------------------------------------------------------------------|
|------------------------------------------------------------------------------------------|
|------------------------------------------------------------------------------------------|
|------------------------------------------------------------------------------------------|
|--0h=2-------x---------x-------0h=====2--x--------------x---0h======2----0h======2------x-|
|--0h=2-------x---------x-------0h=====2--x--------------x---0h======2----0h======2------x-|


  D5 F5              D5F5         A5          G5
          ~~~~~~~~~~~~~~~~~~~~~~
   E.     S      +Q         +Q.                +E
|--------20b22==(20)-------(20)---------------(20)r\--|
|-20--------------------------------------------------|
|-----------------------------------------------------|
|-----------------------------------------------------|
|-----------------------------------------------------|
|-----------------------------------------------------|
|
|  S S E          S  S S S   S  S S +S    +E    E
|-----------------------------------------------------|
|-----------------------------------------------------|
|-----------------------------------------------------|
|-----------------------------------------------------|
|--0h3-x----------x--0h3-x------x-7-(7)b8r(7)---5-----|
|--0h3-x----------x--0h3-x------x-7-(7)b8r(7)---5-----|


  D5Bb5          D5 Bb5   Bb5        D5    Bb5  D5 Bb5
  Gtrs I, IV
                                      |---3---|
  S   S  S  S  S  S  S  a  S  +S   S  S  S    S  S  S  S  S
|---/18s16p15-----------------------------------------------|
|-------------18-16-15-18s20-(20)s18-16h18p==16s15----------|
|--------------------------------------------------17-15----|
|--------------------------------------------------------18-|
|-----------------------------------------------------------|
|-----------------------------------------------------------|
|
| Gtrs V, VI
|                                     |---3---|
| S   S  S  S  S  S  S  a  S  +S   S  S  S    S  S  S  S  S
|-----------------------------------------------------------|
|---/11s=9p=8-----------------------------------------------|
|-------------10--8--7-10s12-(12)s10--8h10p===8s=7----------|
|--------------------------------------------------10--8----|
|--------------------------------------------------------11-|
|-----------------------------------------------------------|
|
| Gtrs II, III
| S   S  e     S  S  S     S   S   S  S    S     S  S  e
|-----------------------------------------------------------|
|-----------------------------------------------------------|
|-----------------------------------------------------------|
|-----------------------------------------------------------|
|-0h==8--8-----x--0h=8-----8-------x--0h===8-----0h=8--8----|
|-0h==8--8-----x--0h=8-----8-------x--0h===8-----0h=8--8----|


  D5 A5        D5 A5                 D5A5     A5
   E.     S  S  S  S  +S       +Q          E     +E
|-----------20----------------------------------------|
|--------18-------------------------------------------|
|--------------17-17-(17)b19==(17)-------[17]r==(17)\-|
|-17--------------------------------------------------|
|-----------------------------------------------------|
|-----------------------------------------------------|
|
|  E.     S  S  S  S  +S       +Q          E     +E
|-----------------------------------------------------|
|-----------13----------------------------------------|
|--------10-------------------------------------------|
|--------------10-10-(10)b12==(10)-------[10]r==(10)\-|
|-10--------------------------------------------------|
|-----------------------------------------------------|
|
|  S S e     S  S  S   S        S  S S S   S  S   e
|-----------------------------------------------------|
|-----------------------------------------------------|
|-----------------------------------------------------|
|-----------------------------------------------------|
|--0h7-7-----x--0h=7---7-----------x-0h7---0h=7---7---|
|--0h7-7-----x--0h=7---7-----------x-0h7---0h=7---7---|


  D5Bb5   Bb5        D5 Bb5              D5    Bb5   D5 Bb5
  Gtr I
  S  S     +S   S  S  S  S  S      +E.          T  T  S  S  S  S
|----------------------------------------------------------------|
|---15b17r(15)-13------------------------------------------------|
|-----------------15-13-12-15b17==(15)r--------15p13p12----------|
|-------------------------------------------------------15-13----|
|-------------------------------------------------------------15-|
|----------------------------------------------------------------|
|
|                           ~~~~~~~~~~~~
| S  S     +S   S  S  S  S  S      +E     +S    T  T  S  S  S  S
|---18b20r(18)p16------------------------------------------------|
|---20b21r(20)p18-20-18-16-20b21==(20)r==(20)h=21p20p18----------|
|-----------------20-19-17-20b22==(20)---(20)r-19p17p15-20-19h20-|
|-------------------------------------------------------18-17h18-|
|----------------------------------------------------------------|
|----------------------------------------------------------------|
|
| S  S      e      S  S  S  S       S  S   S    S     S  S  E
|----------------------------------------------------------------|
|----------------------------------------------------------------|
|----------------------------------------------------------------|
|----------------------------------------------------------------|
|-0h=8------8------x--0h=8--8----------x---0h===8-----0h=8--8----|
|-0h=8------8------x--0h=8--8----------x---0h===8-----0h=8--8----|


  A5           Eb5
                ~~~~~~~~~~~
   E.  S  +E    E      +Q.        +E
|---------------------------------------||
|---------------------------------------||
|---------------------------------------||
|---------------------------------------||
|-13--15-(15)--16-----(16)-------(16)\--||
|---------------------------------------||
|
|               ~~~~~~~~~~~
|  E.  S  +E    E      +Q.        +E
|---------------------------------------||
|---------------------------------------||
|-19--20-(20)--20b22==(20)-------(20)r\-||
|-17--18-(18)--20b22==(20)-------(20)r\-||
|---------------------------------------||
|---------------------------------------||
|
|  E.  S  +E    E      +Q     Q
|---------------------------------------||
|---------------------------------------||
|---------------------------------------||
|---------------1------(1)--------------||
|--7---7--(7)\--1------(1)--------------||
|--7---7--(7)\--1------(1)--/12\--------||


 Chorus II, III
  $
  E5                D5E5               E5 F5
  Gtr V
                  ~~~~~~~~~
   E.  S  +S   S  E    +Q    +S   T  T  S  S
|-17--17-(17)h18-17---(17)--(17)h18p17----17-|
|--------------------------------------20----|
|--------------------------------------------|
|--------------------------------------------|
|--------------------------------------------|
|--------------------------------------------|
|
| Gtr VI
|                 ~~~~~~~~~
|  E.  S  +S   S  E    +Q    +S   T  T  S  S
|--------------------------------------------|
|-10--10-(10)h11-10---(10)--(10)h11p10----10-|
|--------------------------------------12----|
|--------------------------------------------|
|--------------------------------------------|
|--------------------------------------------|
|
|  Q      +E.       S   Q.              S  S
|--------------------------------------------|
|--------------------------------------------|
|---------------------------------------4s=5-|
|---------------------------------------2s=3-|
|--2------(2)p======0---2---------------2s=3-|
|--2------(2)p======0---2---------------2s=3-|


  C5                CM7sus2
                         ~~~~~~~~
                                            |--3---|
   E.    S      +E   S  +S   +Q.            S   S  S
|-20b22-20b22==(20)-20r(20)-(20)-----------18h=20p18-|
|----------------------------------------------------|
|----------------------------------------------------|
|----------------------------------------------------|
|----------------------------------------------------|
|----------------------------------------------------|
|
|                        ~~~~~~~~
|                                           |--3---|
|  E.    S      +E   S  +S   +Q.            S   S  S
|----------------------------------------------------|
|-13b15-13b15==(13)-13r(13)-(13)-----------11h=13p11-|
|----------------------------------------------------|
|----------------------------------------------------|
|----------------------------------------------------|
|----------------------------------------------------|
|
|                                 |-------6--------|
|  E.    S      +E   E       +Q   E    +S  +S   S  S
|----------------------------------------------------|
|--------------------3-------(3)---------------------|
|--5-----5------(5)--4-------(4)---------------------|
|--5-----5------(5)--5-------(5)--4b5==(4)r(4)p=2p=0-|
|--3-----3------(3)--3-------(3)---------------------|
|----------------------------------------------------|


  E5              D5E5     C5  D5
                ~~~~~~~~~
   E.   S  +E   E    +Q.     E
|-17-----------------------/22---|
|-----\15-(15)-15---(15)---------|
|--------------------------------|
|--------------------------------|
|--------------------------------|
|--------------------------------|
|
|               ~~~~~~~~~
|  E.   S  +E   E    +Q.     E
|--------------------------------|
|-10-----------------------/15---|
|------\7--(7)--7----(7)---------|
|--------------------------------|
|--------------------------------|
|--------------------------------|
|
|  Q       +E.    S   Q.     S S
|--------------------------------|
|--------------------------------|
|--------------------------------|
|----------------------------5s7-|
|--2-------(2)p===0---2------3s5-|
|--2-------(2)p===0---2----------|


                   Gb                  D
   E.    S  +E   E  +S   T  T   S    S  S  T  T  S    S
|-22b24-20-(20)-20-(20)h22p20s=18---20-18h20p18s17---18-|
|-------------------------------------------------------|
|-------------------------------------------------------|
|-------------------------------------------------------|
|-------------------------------------------------------|
|-------------------------------------------------------|
|
|  E.    S  +E   E  +S   T  T   S    S  S  T  T  S    S
|-------------------------------------------------------|
|-15b17-13-(13)-13-(13)h15p13s=11---13-11h13p11s10---11-|
|-------------------------------------------------------|
|-------------------------------------------------------|
|-------------------------------------------------------|
|-------------------------------------------------------|
|
|  H                 E         +E       E       +E
|-------------------------------------------------------|
|-------------------------------------------------------|
|-------------------11--------(11)\-----7-------(7)\----|
|--7----------------------------------------------------|
|--5-----------------9---------(9)\-----5-------(5)\----|
|-------------------------------------------------------|


  E5                     D5      E5                        F5
                                   ~~~~~~~~~~~~~~~~~~
   E.     S  +S   S  +S   +S      +S   +E.      +S    S  S  S
|--------20-(20)-------------------------------------17-17-17-|
|-20b22==========20r(20)-(20)b22r(20)-(20)b22==(20)r----------|
|-------------------------------------------------------------|
|-------------------------------------------------------------|
|-------------------------------------------------------------|
|-------------------------------------------------------------|
|
|                                  ~~~~~~~~~~~~~~~~~~
|  E.     S  +S   S  +S   +S      +S   +E.      +S    S  S  S
|-------------------------------------------------------------|
|--------13-(13)-------------------------------------10-10-10-|
|-12b14==========12r(12)-(12)b14r(12)-(12)b14==(12)r----------|
|-------------------------------------------------------------|
|-------------------------------------------------------------|
|-------------------------------------------------------------|
|
|  Q         +E.           S       Q.                    S  S
|-------------------------------------------------------------|
|-------------------------------------------------------------|
|--------------------------------------------------------4s=5-|
|--------------------------------------------------------2s=3-|
|--2---------(2)p==========0-------2---------------------2s=3-|
|--2---------(2)p==========0-------2---------------------2s=3-|


                                                                     To Coda
                                           E5            D5E5        D5
                      ~~~~~~~                          ~~~~~~~~~
                                |--3---|
   E.    S      +E    E  +Q.    S   S  S    E. S  +E   E    +Q.           E
|-20b22-20b22==(20)r-20-(20)---18h=20p18-|-17s22-(22)-22---(22)----------22---|
|----------------------------------------|------------------------------------|
|----------------------------------------|------------------------------------|
|----------------------------------------|------------------------------------|
|----------------------------------------|------------------------------------|
|----------------------------------------|------------------------------------|
|
|                     ~~~~~~~                          ~~~~~~~~~
|                               |--3---|
|  E.    S      +E    E  +Q.    S   S  S    E. S  +E   E    +Q.           E
|----------------------------------------|------------------------------------|
|-13b15-13b15==(13)r-13-(13)---11h=13p11-|-10s15-(15)-15---(15)----------15---|
|----------------------------------------|------------------------------------|
|----------------------------------------|------------------------------------|
|----------------------------------------|------------------------------------|
|----------------------------------------|------------------------------------|
|
|  E.    S      +E    E  +Q.    E           Q     +E.    S   E  +E    Q
|--------0------(0)----------------------|------------------------------------|
|---------------------3--(3)-------------|------------------------------------|
|--5-------------------------------------|------------------------------------|
|--3-------------------------------------|------------------------------------|
|--3-------------------------------------|--2-----(2)p===0---2--(2)/-12\------|
|--3----------------------------7\-------|--2-----(2)p===0---2--(2)/-12\------|


  D5    Eb5   D5Eb5      D5EbD5Eb5   D5 Eb5   D5Eb5      D5EbD5Eb5
   H                 H                H              H
|-24b25-------------23-------------|-21p============20-------------|
|-21p===============20-------------|-18p============16-------------|
|----------------------------------|-------------------------------|
|----------------------------------|-------------------------------|
|----------------------------------|-------------------------------|
|----------------------------------|-------------------------------|
|  H                 H                H              H
|
|  H                 H                H              H
|-20p===============18-------------|-16p============15-------------|
|-18p===============16-------------|-14p============13-------------|
|----------------------------------|-------------------------------|
|----------------------------------|-------------------------------|
|----------------------------------|-------------------------------|
|----------------------------------|-------------------------------|
|  H                 H                H              H
|
|  S    S E S S S S  S S S S S S E    S S E S S S S  S S S S S S E
|----------------------------------|-------------------------------|
|----------------------------------|-------------------------------|
|----------------------------------|-------------------------------|
|----------------------------------|-------------------------------|
|--0h===1-x-x-0h1-x----x-0h1-0h1-x-|--0h1-x-x-0h1-x----x-0h1-0h1-x-|
|--0h===1-x-x-0h1-x----x-0h1-0h1-x-|--0h1-x-x-0h1-x----x-0h1-0h1-x-|


  D5 Eb5   D5Eb5      D5EbD5Eb5    D5 Eb5  D5 Eb5      D5 Eb5    D5Eb5 D5    Eb5
   H              Q.           E    E    S  S  +S    S  E    +Q         E.        +S
|-18p============16p==========15-|-13h==15-16-(16)-/20s18---(18)-------18b20r====(18)----|
|-14p============13p==========11-|-11h==13-14-(14)-/18s16---(16)-------16b18r====(16)----|
|--------------------------------|-------------------------------------------------------|
|--------------------------------|-------------------------------------------------------|
|--------------------------------|-------------------------------------------------------|
|--------------------------------|-------------------------------------------------------|
|  H              Q.           E    E    S  S  +S    S  E    +Q         E.        +S
|
|  H              Q.           E    E    S  S  +S    S  E    +Q         E.        +S
|--------------------------------|-------------------------------------------------------|
|-18p============16p==========13-|-14h==16-18-(18)-/21s20---(20)-------20b21r====(20)----|
|-15p============13p==========12-|-10h==12-13-(13)-/17s15---(15)-------15b17r====(15)----|
|--------------------------------|-------------------------------------------------------|
|--------------------------------|-------------------------------------------------------|
|--------------------------------|-------------------------------------------------------|
|  H              Q.           E    E    S  S  +S    S  E    +Q         E.        +S
|
|  S S E S S S S  S S S S S S  E    S S  S  S   S    S  S S   S  S S S  S    S E
|--------------------------------|-------------------------------------------------------|
|--------------------------------|-------------------------------------------------------|
|--------------------------------|-------------------------------------------------------|
|--------------------------------|-------------------------------------------------------|
|--0h1-x-x-0h1-x----x-0h1-0h1--x-|--0h1--x--0h==1----x--0h1---x--0h1-x--0h===1-x---------|
|--0h1-x-x-0h1-x----x-0h1-0h1--x-|--0h1--x--0h==1----x--0h1---x--0h1-x--0h===1-x---------|


  E5
  Gtrs V, VI
   W                            +W
|-17-------------------------|-(17)------------------------|
|-17-------------------------|-(17)------------------------|
|-19-------------------------|-(19)------------------------|
|-19-------------------------|-(19)------------------------|
|----------------------------|-----------------------------|
|----------------------------|-----------------------------|
|
| Gtr III
|  W                            +W
|----------------------------|-----------------------------|
|----------------------------|-----------------------------|
|----------------------------|-----------------------------|
|--2-------------------------|--(2)------------------------|
|--2-------------------------|--(2)------------------------|
|--2-------------------------|--(2)------------------------|
|
| Gtr II
|  S S e S S S S E S S S S e     S S e S S S S E S S S S e
|----------------------------|-----------------------------|
|----------------------------|-----------------------------|
|----------------------------|-----------------------------|
|----------------------------|-----------------------------|
|----------------------------|-----------------------------|
|--0h2-2---0h2-2---0h2-0h2-2-|---0h2-2---0h2-2---0h2-0h2-2-|


                                                  \4
   +W                            +H              +H
|-(17)------------------------|-(17)------------(17)----------||
|-(17)------------------------|-(17)------------(17)----------||
|-(19)------------------------|-(19)------------(19)----------||
|-(19)------------------------|-(19)------------(19)----------||
|-----------------------------|-------------------------------||
|-----------------------------|-------------------------------||
|
|                                                     Gtr I
|   ~~~~~~~~~~~~~~~~~~~~~~~~~~~~~~~~~
|   W                            +H               Q   S S  E
|-----------------------------|-------------------------------||
|---0-------------------------|--(0)--------------------------||
|-----------------------------|-------------------------------||
|--(2)------------------------|--(2)--------------------x/-x\-||
|--(2)------------------------|--(2)--------------------x/-x\-||
|--(2)------------------------|--(2)--------------------------||
|
|   S S e S S S S E S S S S e     S S e S S S S   H
|-----------------------------|-------------------------------||
|-----------------------------|-------------------------------||
|-----------------------------|-------------------------------||
|-----------------------------|-------------------------------||
|-----------------------------|-------------------------------||
|---0h2-2---0h2-2---0h2-0h2-2-|---0h2-2---0h2-2---------------||


 Guitar Solo I
  N.C.
  Gtr I
           T        T                                       ~~~~~~~~~~~~
           |------6-------|                  |--3--|                       |--3--|
  S  T  T  T  T  T  T  T  T  E       +S   S  S  S  S  T  T  S      +E      S  S  S
|---10h13h15p13p10-----------------------10-------------------------------10-------|
|------------------15p13p10h13b15---(13)----13p10----13p10-------------------13p10-|
|-------------------------------------------------11-------12b14==(12)r------------|
|----------------------------------------------------------------------------------|
|----------------------------------------------------------------------------------|
|----------------------------------------------------------------------------------|
|
| Gtrs II, III
| S  S     e                 S    S   S   S  E        S     S       S   S  e
|----------------------------------------------------------------------------------|
|----------------------------------------------------------------------------------|
|----------------------------------------------------------------------------------|
|----------------------------------------------------------------------------------|
|----------------------------------------------------------------------------------|
|-0h=2-----2----------------------0h==2---2-----------0h====2-------0h==2--2-------|


                                                  ~~~
                  |--------6---------|
   E.        +S   S  S    S  S  S    S  S S  S S  E.    +S
|------------------------------------------------------------|
|-11b13r====(11)p10------------------------------------------|
|-------------------12p==10----------------------------------|
|---------------------------12p10----------------------------|
|-----------------------------------12s10-8s12s8-10----(10)\-|
|------------------------------------------------------------|
|
|                                                 ~~~
|  S    S e       S    S     S    S     E    S S  E  E
|------------------------------------------------------------|
|------------------------------------------------------------|
|------------------------------------------------------------|
|------------------------------------------------------------|
|------------------------------------------------------------|
|--0h===3-3------------0h====3----3----------0h5--5--3-------|


    \1___/   |                      \1____/   |         \1____/
                                                   ~~~~
  S a   +S   S   S  S  E     S  S   S    +S  +S   +E    a    +E
|---------------10--8-(8)s==13-13-(13)--(13)(13)-(13)------------|
|---5---(5)s13-(13)---10s===15-----15---(15)(15)-(15)--15---(15)s|
|-x--------------------------------------------------------------|
|-x--------------------------------------------------------------|
|----------------------------------------------------------------|
|----------------------------------------------------------------|
|
| S      S   e      S  S  S  S  E         S   S    S S        e
|----------------------------------------------------------------|
|----------------------------------------------------------------|
|----------------------------------------------------------------|
|----------------------------------------------------------------|
|----------------------------------------------------------------|
|-0h=====2---2---------0h=2--2------------0h==2----0h2--------2--|


   |     \0.5____/   |                        \1/   \1/   \1/         \2____|
   S  S  a      +S   S  T  T  S  T  T  S  S  +S    +S    +S     +E   +S  a +S
|----15----------------17-17----20p17----17-(17)--(17)--(17)---(17)-(17)p0-(0)---|
|-18----18-----(18)s20-------20-------20-20-(20)--(20)--(20)---(20)-(20)---------|
|--------------------------------------------------------------------------------|
|--------------------------------------------------------------------------------|
|--------------------------------------------------------------------------------|
|--------------------------------------------------------------------------------|
|
|  S  S          e      S     S  S     S  E         S    +S     +E    E
|--------------------------------------------------------------------------------|
|--------------------------------------------------------------------------------|
|--------------------------------------------------------------------------------|
|--------------------------------------------------------------------------------|
|--------------------------------------------------------------------------------|
|--0h=3----------3------------0h=3-----3------------7----(7)b8r=(7)---5----------|


  |--------3---------|          |-------------------5-------------------|     |--------3---------|
  E     a     +E     E   a     +E     E       a     +E     E     a     +E     E     a     +E     E
|--------------------------------------------------------------------------------------------------|
|-------------------15---------------15-------------------15-----------------15-----------------15-|
|-----/19b21-(19)------/19b22-(19)----------/19b22-(19)--------/19b22-(19)--------/19b22-(19)------|
|--------------------------------------------------------------------------------------------------|
|--------------------------------------------------------------------------------------------------|
|--------------------------------------------------------------------------------------------------|
|
| S S             e             S  S    S S             E    S             S  S S             e
|--------------------------------------------------------------------------------------------------|
|--------------------------------------------------------------------------------------------------|
|--------------------------------------------------------------------------------------------------|
|--------------------------------------------------------------------------------------------------|
|--------------------------------------------------------------------------------------------------|
|-0h2-------------2----------------0h===2-2------------------0h============2--0h2-------------2----|


                                                        \1
             ~~~~~~~~~                         ~~~~~~~
   E        +E   +E.        S       +S   S  S  S  +E   +S   S
|-------------------------------------------------------------|
|-18b22====(18)-(18)r-----[18]pb22r(18)-15--------------------|
|------------------------------------------17-----------------|
|---------------------------------------------15-(15)-(15)/---|
|-------------------------------------------------------------|
|-------------------------------------------------------------|
|
|                                                  ~~~~
|  S     S   e    S   S S   S        E      S  S   E    E
|-------------------------------------------------------------|
|-------------------------------------------------------------|
|-------------------------------------------------------------|
|-------------------------------------------------------------|
|-------------------------------------------------------------|
|--0h====3---3--------0h3---3---------------0h=5---5----3-----|


  T  T T  T T  T T  T T  T T  T S      S T  T T  T T  T T  T T  T T  T  E
|-8h11p8---------8h11p8---------------------------------------------------|
|--------10p9h10--------10p9-------------9h12p9---------9h12p9------------|
|----------------------------10-9b9.5-10--------10p9h10--------10p9-------|
|-------------------------------------------------------------------11-10-|
|-------------------------------------------------------------------------|
|-------------------------------------------------------------------------|
|
| S    S    e         S    S    S      S E         S    S    S    S     e
|-------------------------------------------------------------------------|
|-------------------------------------------------------------------------|
|-------------------------------------------------------------------------|
|-------------------------------------------------------------------------|
|----------------
Добавлено: 17.06.2012
Другие материалы по этой песне:

Страница создана 08.04.2012
http://primanota.ru/steve-vai/building-the-church-chords.htm
Привет, Гость.
Предлагаем пройти революционный курс по гитаре.
Подарок от PrimaNota.Ru, забирай!